» » »

Sunday Morning Tabs (ver.1)

Artists:  A B C D E F G H I J K L M N O P Q R S T U V W X Y Z # 

Sunday Morning Tabs (ver.1)

K-Os
Rating:
0/5 (0 votes)
Tabs too difficult? Try these video lessons and learn fast.
                -- Sunday Morning (Acoustic) by K-Os --

This is the tab for the K-Os' awesome acoustic version of Sunday Morning on his Live 
(iTunes Exclusive) EP.
The strumming is quite difficult to tab out, I have tabbed it out the way I play it. 
add any comments/corrections.

Standard Tuning EADGBe

Am = 0-0-2-2-1-0----|
D9 = 0-0-0-2-1-0----|
Asus = 0-0-2-2-3-0--|
Cmaj7 = X-3-2-0-0-0-|
F = 1-3-3-2-1-1-----|


STRUMMING FOR INTRO/CHORUS:

D = Down Strum
U = Up Strum

    Am                    D9
e|--0----0---0--0--0--0------------0--0--|
B|--1----1---1--1--1--1------------1--1--|
G|--2----2---2--2--2--2---2----2---2--2--|
D|--2----2---2--2--2--2---0----0---0--0--|
A|--0----0---0--0--0--0------------0--0--|
E|--0----0---0--0--0--0------------0--0--|
    D    D   D  U  D  U   D    D   U  D


    D9  Am                      Asus                 Am
e|--0-0-0----0----0--0--0--0----0----0----0--0---0-0-0--|
B|--1-1-1----1----1--1--1--1----3----3----3--3---3-3-1--|
G|--2-2-2----2----2--2--2--2----2----2----2--2---2-2-2--|
D|--0-0-2----2----2--2--2--2----2----2----2--2---2-2-2--|
A|--0-0-0----0----0--0--0--0----0----0----0--0---0-0-0--|
E|--0-0-0----0----0--0--0--0----0----0----0--0---0-0-0--|
    U D U    D    D  U  D  U    U    U    U  D   U D U


[INTRO]
Play strum pattern 4 times, but on 4th don't play the Am at the end.


[VERSE]
e|-------------------|-------------------|-------------------|----------------|
B|------0-----0---0--|------3-----3---3--|------3-----3---3--|------3----3----|
G|------7-----7---7--|------0-----0---0--|------0-----0---0--|------0----0----|
D|--7-----7-----7----|--5-----5-----5----|--3-----3-----3----|--3-----3----3--|
A|-------------------|-------------------|-------------------|----------------|
E|-------------------|-------------------|-------------------|----------------|

It's the same thing, back in the cold
People know, people come and go it bores me
Same thing
Seems like I'm trapped in the world
Where the servants the face of time
Time waits on no man
So when people fall like me
I


[CHORUS]
Everyday is Saturday night
But I can't wait for Sunday morning
Sunday morning, Oh
Everyday is Saturday night
But I can't wait for Sunday morning
Sunday morning, Oh


[VERSE]
Walking down blocks
Pictures don't stop
The pictures inside my dome
This is not me
I'm just afraid to be here all alone
Hurry up, wait
Quit it don't stop
I'm drowning in the self
This is not me
Where is my revolution, but


[BRIDGE]
e|------5-----5----|------3-----3---3--|------3-----3---3--|------3----3----|
B|------0-----0----|------0-----0---0--|------0-----0---0--|------0----0----|
G|-----------------|-------------------|-------------------|----------------|
D|--7-----7-----7--|--5-----5-----5----|--3-----3-----3----|--3-----3----3--|
A|-----------------|-------------------|-------------------|----------------|
E|-----------------|-------------------|-------------------|----------------|

If you want to own me
I am not concerned
If you follow me
I know that I can learn
You might be the greatest thing I've ever seen
All I know is music
All, All I've ever known


[CHORUS]


[OUTRO]
    Cmaj7                                       F
e|--0----0--0----0--0----0----0--0--0--0----0-0-1----1--1----1--1----1--1--1--1--1--1---1-1--|
B|--0----0--0----0--0----0----0--0--0--0----0-0-1----1--1----1--1----1--1--1--1--1--1---1-1--|
G|--0----0--0----0--0----0----0--0--0--0----0-0-2----2--2----2--2----2--2--2--2--2--2---2-2--|
D|--2----2--2----2--2----2----2--2--2--2----2-2-3----3--3----3--3----3--3--3--3--3--3---3-3--|
A|--3----3--3----3--3----3----3--3--3--3----3-3-3----3--3----3--3----3--3--3--3--3--3---3-3--|
E|--X----X--X----X--X----X----X--X--X--X----x-x-1----1--1----1--1----1--1--1--1--1--1---1-1--|
    U    D  U    U  D    U    U  D  U  D    U D U    D  U    U  D    U  D  U  D  U  D   D U

Saturday I woke up (X4)
            
Tabs too difficult? Try these video lessons and learn fast.


comments powered by Disqus
↑ Back to top | Tablatures and chords are parodies/interpretations of the original songs. You may use it for private study, scholarship, research or language learning purposes only