» » »

Heaven Only Knows Remix Bass tabs (ver.1)

Artists:  A B C D E F G H I J K L M N O P Q R S T U V W X Y Z # 

Heaven Only Knows Remix Bass tabs (ver.1)

K-Os
Rating:
0/5 (0 votes)

Hard to play? Try these video lessons and learn fast.
                This song is fun to play but it gets boring very quickly---here is what i got out of this song:

Main Riff:

G]----8----|
D]---------|
A]--7------|   repeat through out the entire song
E]---------|

Funky Bass Riff (4:08) play fast

G]------------------------------------------------------------2/3------|
D]------------------3h5----------------------2-------------------------|
A]-4h5-0-4-0-4/5-0------0-4--5--0--0-0-4/3-4-4--0-4/5-0-5/4-0------0---|
E]---------------------------------------------------------------------|
                             ^

G]---------------------------------|
D]---------------------------------|
A]--3-0-0---7h8-0--0-0-0h2-0-------|
E]---------------------------------|

(4:23)
G]------------------------|
D]------------------------|
A]-7h8-0--0-0-0h2-0-------|  repeat till song ends
E]------------------------|

that is how i play the funky riff at the end, it maybe wrong but it might sound like 
if my way is wrong:

G]---------------------|
D]---------------------|
A]--0h4--0-0-0-0-0h4---|
E]---------------------|
            
Hard to play? Try these video lessons and learn fast. | Correct




comments powered by Disqus
↑ Back to top | Tablatures and chords are parodies/interpretations of the original songs. You may use it for private study, scholarship, research or language learning purposes only