» » »

K-Os, Catdiesel Bass tabs (ver.1)

Artists:  A B C D E F G H I J K L M N O P Q R S T U V W X Y Z # 

Catdiesel Bass tabs (ver.1)

K-Os Tabs
Rating:
0/5 (0 votes)
Catdiesel lessons Tabs too difficult? Try these video lessons and learn fast
                -------------------------------------------------------------------------------
-------------------------------------------------------------------------------


Tuning: Standard

The Verse and Chorus follow the same chord progression, which use these two 
basslines throughout the song. You can hear when they use each.



G|--------------4-----------1--------------------------------------------------|
D|-----7-----------------------2-----------------------------------------------|
A|---7-------5-----------------------------------------------------------------|
E|-5-------3-------1----0-------------4----------------------------------------|

and

G|---------------------------------------------------------------------------|
D|---------------------------------------------------------------------------|
A|---------------------------------------------------------------------------|
E|-5----3---1---0-------4----------------------------------------------------|


Breakdown:

G|------------------------------------------------------------------------------|
D|--------------------------------2-2-2--2-----2-2-2--2-----2-2-2--2------------|
A|--------7-7--7--7-------------------------2------------2------------2---------|
E|--5-5---------------3-3-------------------------------------------------------|

G|------------------------------------------------------------------------------|
D|-2-2-2-----6------------2-2-2--2-----2-2-2--2-----2-2-2--2-----2-2-2----6-----|
A|----------------------------------2------------2------------2-----------------|
E|--------4-----5-5-----------------------------------------------------4-------|


===============================================================================
            

comments powered by Disqus
↑ Back to top | K-Os Bass for Catdiesel. Lyrics for acoustic guitar and electric guitar. Tablatures and chords are parodies/interpretations of the original songs. You may use it for private study, scholarship, research or language learning purposes only