>
 >
Born To Run

Born To Run Guitar Tabs

K-Os - Born To Run chords, tabs, tablatures, lyrics

Guitar lessons | Add/correct | Request | Top 50 tabs Artists:  A B C D E F G H I J K L M N O P Q R S T U V W X Y Z 0-9

Born To Run Guitar Tabs – K-Os

CD, Sheet music, Poster

Do you like Born To Run? Share with your friends now
Tabs
-------------------------------------------------------------------------------
                             Born to Run – k-os
-------------------------------------------------------------------------------


Tuning: Standard (slightly sharp)

e|----0--0-2-0-3-3----0--0-3-0-5-5----0--0-5-0-7-7----0--0-5-0-7-5-7---------|
B|----1--1-1-1-1-1----3--3-3-3-3-3----5--5-5-5-5-5----5—-5-5-5-5-5-5---------|
G|---------------------------------------------------------------------------|
D|---------------------------------------------------------------------------|
A|---------------------------------------------------------------------------|
E|---------------------------------------------------------------------------|

e|----0--0-2-0-3-3----0--0-3-0-5-5----0--0-5-0-7-7----0--0-5-0-/12-12\-------|
B|----1--1-1-1-1-1----3--3-3-3-3-3----5--5-5-5-5-5----5—-5-5-5-/12-12\-------|
G|---------------------------------------------------------------------------|
D|---------------------------------------------------------------------------|
A|---------------------------------------------------------------------------|
E|---------------------------------------------------------------------------|

I’m at a hot creep show
Same old thing on the radio
Who’s that coming ‘round
Suffering popularity breakdown

e|----0-0----2-2----3-3----3-2-2-----------0-0----2-2----3-3-----2-----------|
B|----1-1----3-3----5-5----5-5-5-----------1-1----3-3----5-5-----5-----------|
G|---------------------------------------------------------------------------|
D|---------------------------------------------------------------------------|
A|---------------------------------------------------------------------------|
E|---------------------------------------------------------------------------|

I can’t it’s funny that
That I got stopped when I’m walking the streets
Walking down streets, walking down paths 
With the kids in the back way I said 

e|-------------------------------0----------------------------------0--------|
B|-------1------------3----------1---------1-----------3------------1--------|
G|----------2------------4--------------------2-----------4------------------|
D|---/2-----------/4-------------------/2----------/4------------------------|
A|---------------------------------------------------------------------------|
E|---------------------------------------------------------------------------|

If you can’t dance to this it doesn’t matter
If you can’t dance to this it doesn’t matter

e|----00000--22220--35553--5-55553------00000--22220--35553—-5-55553---------|
B|----11110--33333--55555--5-55555------11110--33333--55555--5-55555---------|
G|---------------------------------------------------------------------------|
D|---------------------------------------------------------------------------|
A|---------------------------------------------------------------------------|
E|---------------------------------------------------------------------------|

I was running around with my head in the sand
Looking for pupil in a new fan
She told me before, baby do your own dance
Stay off the highway

Chorus (4X – syncopated reggae rhythm):

e|----0-0-0-0----2-2-2-2----3-3-3-3-2-2-3------------------------------------|
B|----1-1-1-1----3-3-3-3----5-5-5-5-5-5-5------------------------------------|
G|---------------------------------------------------------------------------|
D|---------------------------------------------------------------------------|
A|---------------------------------------------------------------------------|
E|---------------------------------------------------------------------------|

That doesn’t mean you were born to run
Either we’re vain or we’re broken hearted
We don’t believe in a heaven above
That’s why we’re back to the place that we started

That doesn’t mean you were born to run
Either we’re vain or we’re broken hearted
As sure as the stars in the skies above
We’re goin’ back to the place that we started

Solo (2X):

e|-12-12-12-12-12-12-12-12-------10-10-8-------------------------------------|
B|-------------------------10-10---------12-12-12-12-12-12-12-12-----10-10-8-|
G|---------------------------------------------------------------9-9---------|
D|---------------------------------------------------------------------------|
A|---------------------------------------------------------------------------|
E|---------------------------------------------------------------------------|

~ End of solo ~

e|----0----2----3----2-----------0----2----3----2----------------------------|
B|----1----3----5----5-----------1----3----5----5----------------------------|
G|---------------------------------------------------------------------------|
D|---------------------------------------------------------------------------|
A|---------------------------------------------------------------------------|
E|---------------------------------------------------------------------------|

We fell from sky and universe
When we fell in love with the sound
Of the birds and all the ocean lights
And the gravity pulling us down

e|----0000--2222--3333--2222----0000--2222--3333—2222------------------------|
B|----1111--3333--5555--5555----1111--3333--5555-5555------------------------|
G|---------------------------------------------------------------------------|
D|---------------------------------------------------------------------------|
A|---------------------------------------------------------------------------|
E|---------------------------------------------------------------------------|

Time won’t let you go
There are some things you’ll never know
I’m hoping that she walks through the door
I’m in hell

e|---------------------------------------------------------------------------|
B|-----0-----------0-------------0-----------0-------------------------------|
G|-------5-----------5--4----------5-----------5--4-------1------------------|
D|---------7-----5-------------------7-----5--------------2------------------|
A|---7-------------------------7---------------------------------------------|
E|---------------------------------------------------------------------------|

If the sky would fall 
Will it take that to bring us together
Do we have to start all over again

Chorus:

e|----0--0-2-0-3-3----0--0-3-0-5-5----0--0-5-0-7-7----0--0-5-0-7-5-7---------|
B|----1--1-1-1-1-1----3--3-3-3-3-3----5--5-5-5-5-5----5—-5-5-5-5-5-5---------|
G|---------------------------------------------------------------------------|
D|---------------------------------------------------------------------------|
A|---------------------------------------------------------------------------|
E|---------------------------------------------------------------------------|

e|----0--0-2-0-3-3----0--0-3-0-5-5----0--0-5-0-7-7----0--0-5-0-/12-12\-------|
B|----1--1-1-1-1-1----3--3-3-3-3-3----5--5-5-5-5-5----5—-5-5-5-/12-12\-------|
G|---------------------------------------------------------------------------|
D|---------------------------------------------------------------------------|
A|---------------------------------------------------------------------------|
E|---------------------------------------------------------------------------|

That doesn’t mean you were born to run
Either we’re vain or we’re broken hearted
As sure as the stars in the skies above
We’re going back to the place that we started

Born to run until we fell in love
Born to run until we fell
Born to run until we fell in love
Born to run until we fell

---------------
Acoustic Outro
---------------

Tuning: Standard

Chords (strummed as partial chords):
F    xx321x
G    x2003x
Em/A xx200x
Am   xx221x

F          G          Em/A        Am    G

I’m at a hot creep show
Same old thing on the radio
Who’s that coming ‘round
Suffering popularity breakdown

I think it’s funny that
That I got harassed when I’m walking the streets
Walking down streets, walking down paths 
With the kids in the back way I said 

If you can’t dance to this it doesn’t matter
If you can’t dance to this it doesn’t matter

I was running around with my head in the sand
Looking for a pupil in a new fan
Told me before, baby do your own dance
Stay off the highway





Comments


Popular K-Os tabs & chords
Crabbuckit 1 Bass Tabs
Crucial Bass Tabs
Crabbuckit Chords
Love Song Chords
The Rain Chords
Crucial Tabs
Emcee Murdah 1 Tabs
The Avenue Tabs
Crucial Ukulele
Faith Ukulele


Song lyrics



↑ Back to top | Tablatures and chords are parodies/interpretations of the original songs. You may use it for private study, scholarship, research or language learning purposes only
© 2014 AZChords.com Contact us | Privacy policy | DMCA | Add/correct tabs | Request tabs | Top 50 tabs