» » »

Proud Tabs (ver.2)

Artists:  A B C D E F G H I J K L M N O P Q R S T U V W X Y Z # 

Proud Tabs (ver.2)

Korn
Rating:
0/5 (0 votes)

Hard to play? Try these video lessons and learn fast.
                It´s important that you´ve listened to the song to get the rythm.
------------------------------------------------------
Intro: B(b5) -/---/-/--/-/-/

B(b5):

e-x---
C-x---
G-10--
D-9---
A-8---
E-7---

-------------------------------------------------------
Riff 1:

B----0----0---0---
G----3----0---6---
-------------------------------------------------------
Main Riff & Verse 1

B(b5)
Must you keep looking at me,
before you looked the other way.
Must you keep glaring at me,
I know you look inside, and see what you´ve made.
------------------------------------------------------
Chorus

B---0----0-----0--------0----0-----0----0---0---
G---13---12----9--------13---12----9----7-------

You took no pride in me,
but now I´m your everything.
It´s finding out, you owe me
not all of your gloating.
------------------------------------------------------
Verse 2

Must you keep looking at me.
Now you see what I am.
Trust, I knew what it was.
I don't forget things, thinking I'm nothing.
------------------------------------------------------
Chorus
------------------------------------------------------
Riff 2: Chords Unknown

Pride of me
No Pride
Why?
------------------------------------------------------
Verse 3

Must you keep looking at me
Before you looked the other way
Trust, I knew what it was
I don't forget things, look what you've made.
------------------------------------------------------
Chorus
------------------------------------------------------
            
Hard to play? Try these video lessons and learn fast. | Correct




comments powered by Disqus
↑ Back to top | Tablatures and chords are parodies/interpretations of the original songs. You may use it for private study, scholarship, research or language learning purposes only