» » »

Korn, Hey Daddy Tabs (ver.1)

Artists:  A B C D E F G H I J K L M N O P Q R S T U V W X Y Z # 

Hey Daddy Tabs (ver.1)

Korn Tabs
 Rating:
4/5 (4 votes)
Hey Daddy lessons Tabs too difficult? Try these video lessons and learn fast
1
                
TUNING: A, D, G, C, F, A, D

Intro/Verse:
D--------10-----------------
A---------------------------
F-6-10-9----7--6-10-9-7h8-9-
C---------------------------
G---------------------------
D---------------------------
A---------------------------

Chorus:
D-----------------
A-----------------
F-6--6-6-7--6-6-7-
C-----------------
G-4--4-4-5--4-4-5-
D-----------------
A-----------------

Bridge:
D-------------7h8--7h8-
A----------------------
F----------------------
C----------------------
G----------------------
D-7---7---7------------
A---0---0---0----------
            
Submit corrections

comments powered by Disqus
↑ Back to top | Korn Tabs for Hey Daddy. Lyrics for acoustic guitar and electric guitar. 1 Tablatures and chords are parodies/interpretations of the original songs. You may use it for private study, scholarship, research or language learning purposes only