» » »

Coming Undone Tabs (ver.1)

Artists:  A B C D E F G H I J K L M N O P Q R S T U V W X Y Z # 

Coming Undone Tabs (ver.1)

Korn
Rating:
0/5 (0 votes)

Hard to play? Try these video lessons and learn fast.
                Coming Undone by Korn
made for 6 stringed

Drop C tuning:
                
D||--------------------------|--------------------------|
A||--------------------------|--------------------------|
F||--------------------------|--------------------------|
C||--------------------------|--------------------------|
G||--------------------------|--------------------------|
C||--2--2--2-----2-----2--2--|--2-----2-----2--2--2-----|


                                      
--------------------------|--------------------------|
--------------------------|--------------------------|
--------------------------|--------------------------|
--------------------------|--------------------------|
--------------------------|--------------------------|
--2-----2--2--2-----2-----|--2--2--2-----2-----2-----|


                                      
--------------------------|--------------------------|
--------------------------|--------------------------|
--------------------------|--------------------------|
--------------------------|--------------------------|
--------------------------|--------------------------|
--2--2--2-----2-----2--2--|--2-----2-----2--2--2-----|


                                      
--------------------------|--------------------------|
--------------------------|--------------------------|
--------------------------|--------------------------|
--------------------------|--------------------------|
--------------------------|--------------------------|
--2-----2--2--2-----2-----|--2--2--2-----2-----2-----|


                                      
--------------------------|--------------------------|
--------------------------|--------------------------|
--------------------------|--------------------------|
--------------------------|--------------------------|
--------------------------|--------------------------|
--2--2--2-----2-----2--2--|--2-----2-----2--2--2-----|


                                      
--------------------------|--------------------------|
--------------------------|--------------------------|
--------------------------|--------------------------|
--------------------------|--------------------------|
--------------------------|--------------------------|
--2-----2--2--2-----2-----|--2--2--2-----2-----2-----|


                                      
--------------------------|--------------------------|
--------------------------|--------------------------|
--------------------------|--------------------------|
--------------------------|--------------------------|
--------------------------|--------------------------|
--2--2--2-----2-----2--2--|--2-----2-----2--2--2-----|


                                      
--------------------------|--------------------------|
--------------------------|--------------------------|
--------------------------|--------------------------|
--------------------------|--------------------------|
--------------------------|--------------------------|
--2-----2--2--2-----2-----|--2--2--2-----2-----2-----|


                                      
--------------------------|--------------------------|
--------------------------|--------------------------|
--------------------------|--------------------------|
--------------------------|--------------------------|
--------------------------|--------------------------|
--2--2--2-----2-----2--2--|--2-----2-----2--2--2-----|


                                      
--------------------------|--------------------------|
--------------------------|--------------------------|
--------------------------|--------------------------|
--------------------------|--------------------------|
--------------------------|--------------------------|
--2-----2--2--2-----2-----|--2--2--2-----2-----2-----|


                                                         
--------------------------|----------------------|--------------------------|
--0--0--------------------|----------------------|--0--0--------------------|
-----------0--0-----------|----------------------|-----------0--0-----------|
--2--2--------------0--0--|--------3-------------|--2--2--------------0--0--|
-----------3--3-----------|-----2--1-------------|-----------3--3-----------|
--------------------5--5--|-----2----------------|--------------------5--5--|


                                                          
-----------------------|--------------------------|----------------------|
-----------------------|--0--0--------------------|----------------------|
--------2b-------------|-----------0--0-----------|----------------------|
-----------------------|--2--2--------------0--0--|--------3-------------|
-----2-----------------|-----------3--3-----------|-----2--1-------------|
-----2-----------------|--------------------5--5--|-----2----------------|


                                                           
--------------------------|-----------------------|-------------------|
--0--0--------------------|-----------------------|-------------------|
-----------0--0-----------|--------2b-------------|-------------------|
--2--2--------------0--0--|-----------------------|-------------------|
-----------3--3-----------|-----2-----------------|-------------------|
--------------------5--5--|-----2-----------------|-------------------|


                                                           
-------------------|--0------------------|-----------------------|
-------------------|---------------------|-----------------------|
-------------------|---------------------|------------0----------|
-------------------|--2--------2----2----|--3----3----0-----3----|
-------------------|--x--------2----2----|--3----3----------3----|
-------------------|-----------2----2----|--3----3----5-----3----|


                                                          
--0------------------|-----------------------|--0------------------|
---------------------|-----------------------|---------------------|
---------------------|------------0----------|---------------------|
--2--------2----2----|--3----3----0-----3----|--2--------2----2----|
--x--------2----2----|--3----3----------3----|--x--------2----2----|
-----------2----2----|--3----3----5-----3----|-----------2----2----|


                                                          
-----------------------|--0------------------|---------------------|
-----------------------|---------------------|---------------------|
------------0----------|---------------------|---------------------|
--3----3----0-----3----|--2--------2----2----|--3----3----0--------|
--3----3----------3----|--x--------2----2----|--3----3----0--------|
--3----3----5-----3----|-----------2----2----|--3----3----0--------|


                                                          
--0------------------|-----------------------|--0------------------|
---------------------|-----------------------|---------------------|
---------------------|------------0----------|---------------------|
--2--------2----2----|--3----3----0-----3----|--2--------2----2----|
--x--------2----2----|--3----3----------3----|--x--------2----2----|
-----------2----2----|--3----3----5-----3----|-----------2----2----|


                                                           
-----------------------|--0------------------|-----------------------|
-----------------------|---------------------|-----------------------|
------------0----------|---------------------|------------0----------|
--3----3----0-----3----|--2--------2----2----|--3----3----0-----3----|
--3----3----------3----|--x--------2----2----|--3----3----------3----|
--3----3----5-----3----|-----------2----2----|--3----3----5-----3----|



--0------------------|---------------------|----------------------------|
---------------------|---------------------|----------------------------|
---------------------|---------------------|----------------------------|
--2--------2----2----|--3----3----0--------|----------------------------|
--x--------2----2----|--3----3----0--------|----------------------------|
-----------2----2----|--3----3----0--------|----------------2--2--2--2--|

                          
                           
----------------------------|--------------------------|
----------------------------|--------------------------|
----------------------------|--------------------------|
----------------------------|--------------------------|
----------------------------|--------------------------|
----------------2--2--2--2--|--2--2--2-----2-----2--2--|


                                      
--------------------------|--------------------------|
--------------------------|--------------------------|
--------------------------|--------------------------|
--------------------------|--------------------------|
--------------------------|--------------------------|
--2-----2-----2--2--2-----|--2-----2--2--2-----2-----|


                                      
--------------------------|--------------------------|
--------------------------|--------------------------|
--------------------------|--------------------------|
--------------------------|--------------------------|
--------------------------|--------------------------|
--2--2--2-----2-----2-----|--2--2--2-----2-----2--2--|


                                      
--------------------------|--------------------------|
--------------------------|--------------------------|
--------------------------|--------------------------|
--------------------------|--------------------------|
--------------------------|--------------------------|
--2-----2-----2--2--2-----|--2-----2--2--2-----2-----|


                                      
--------------------------|--------------------------|
--------------------------|--------------------------|
--------------------------|--------------------------|
--------------------------|--------------------------|
--------------------------|--------------------------|
--2--2--2-----2-----2-----|--2--2--2-----2-----2--2--|


                                      
--------------------------|--------------------------|
--------------------------|--------------------------|
--------------------------|--------------------------|
--------------------------|--------------------------|
--------------------------|--------------------------|
--2-----2-----2--2--2-----|--2-----2--2--2-----2-----|


                                      
--------------------------|--------------------------|
--------------------------|--------------------------|
--------------------------|--------------------------|
--------------------------|--------------------------|
--------------------------|--------------------------|
--2--2--2-----2-----2-----|--2--2--2-----2-----2--2--|


                                      
--------------------------|--------------------------|
--------------------------|--------------------------|
--------------------------|--------------------------|
--------------------------|--------------------------|
--------------------------|--------------------------|
--2-----2-----2--2--2-----|--2-----2--2--2-----2-----|


                                                         
--------------------------|--------------------------|----------------------|
--------------------------|--0--0--------------------|----------------------|
--------------------------|-----------0--0-----------|----------------------|
--------------------------|--2--2--------------0--0--|--------3-------------|
--------------------------|-----------3--3-----------|-----2--1-------------|
--2--2--2-----2-----2-----|--------------------5--5--|-----2----------------|


                                                          
--------------------------|-----------------------|--------------------------|
--0--0--------------------|-----------------------|--0--0--------------------|
-----------0--0-----------|--------2b-------------|-----------0--0-----------|
--2--2--------------0--0--|-----------------------|--2--2--------------0--0--|
-----------3--3-----------|-----2-----------------|-----------3--3-----------|
--------------------5--5--|-----2-----------------|--------------------5--5--|


                                                          
----------------------|--------------------------|-----------------------|
----------------------|--0--0--------------------|-----------------------|
----------------------|-----------0--0-----------|--------2b-------------|
--------3-------------|--2--2--------------0--0--|-----------------------|
-----2--1-------------|-----------3--3-----------|-----2-----------------|
-----2----------------|--------------------5--5--|-----2-----------------|


                                                           
-------------------|-------------------|--0------------------|
-------------------|-------------------|---------------------|
-------------------|-------------------|---------------------|
-------------------|-------------------|--2--------2----2----|
-------------------|-------------------|--x--------2----2----|
-------------------|-------------------|-----------2----2----|


                                                           
-----------------------|--0------------------|-----------------------|
-----------------------|---------------------|-----------------------|
------------0----------|---------------------|------------0----------|
--3----3----0-----3----|--2--------2----2----|--3----3----0-----3----|
--3----3----------3----|--x--------2----2----|--3----3----------3----|
--3----3----5-----3----|-----------2----2----|--3----3----5-----3----|


                                                          
--0------------------|-----------------------|--0------------------|
---------------------|-----------------------|---------------------|
---------------------|------------0----------|---------------------|
--2--------2----2----|--3----3----0-----3----|--2--------2----2----|
--x--------2----2----|--3----3----------3----|--x--------2----2----|
-----------2----2----|--3----3----5-----3----|-----------2----2----|


                                                          
---------------------|--0------------------|-----------------------|
---------------------|---------------------|-----------------------|
---------------------|---------------------|------------0----------|
--3----3----0--------|--2--------2----2----|--3----3----0-----3----|
--3----3----0--------|--x--------2----2----|--3----3----------3----|
--3----3----0--------|-----------2----2----|--3----3----5-----3----|


                                                          
--0------------------|-----------------------|--0------------------|
---------------------|-----------------------|---------------------|
---------------------|------------0----------|---------------------|
--2--------2----2----|--3----3----0-----3----|--2--------2----2----|
--x--------2----2----|--3----3----------3----|--x--------2----2----|
-----------2----2----|--3----3----5-----3----|-----------2----2----|


                                                          
-----------------------|--0------------------|---------------------|
-----------------------|---------------------|---------------------|
------------0----------|---------------------|---------------------|
--3----3----0-----3----|--2--------2----2----|--3----3----0--------|
--3----3----------3----|--x--------2----2----|--3----3----0--------|
--3----3----5-----3----|-----------2----2----|--3----3----0--------|


                             
--11-11-11-11-11-11-11-11-----------|--------------------------|
------------------------------------|--------------------------|
---8--8--8--8--8--8--8--8-----------|--------------------------|
---x--x--x--x--x--x--x--x-9----9----|--10----10----12----12----|
--------------------------9----9----|--10----10----12----12----|
--------------------------9----9----|--10----10----12----12----|


                               
--11-11-11-11-11-11-11-11-----------|--------------------------|
------------------------------------|--------------------------|
---8--8--8--8--8--8--8--8-----------|--------------------------|
---x--x--x--x--x--x--x--x-9----9----|--10----10----12----12----|
--------------------------9----9----|--10----10----12----12----|
--------------------------9----9----|--10----10----12----12----|

                               
--11-11-11-11-11-11-11-11-----------|--------------------------|
------------------------------------|--------------------------|
---8--8--8--8--8--8--8--8-----------|--------------------------|
---x--x--x--x--x--x--x--x-9----9----|--10----10----12----12----|
--------------------------9----9----|--10----10----12----12----|
--------------------------9----9----|--10----10----12----12----|


                               
--11-11-11-11-11-11-11-11-----------|--------------------------|
------------------------------------|--------------------------|
---8--8--8--8--8--8--8--8-----------|--------------------------|
---x--x--x--x--x--x--x--x-9----9----|--10----10----12----12----|
--------------------------9----9----|--10----10----12----12----|
--------------------------9----9----|--10----10----12----12----|


                                                              
-----------------------|----------------------|-----------------------|
-----------------------|----------------------|-----------------------|
-----------------------|----------------------|-----------------------|
-----------------------|----------------------|-----------------------|
-----------------------|----------------------|-----------------------|
--2----2-----1---------|--0-------------------|--2----2-----1---------|


                                                             
----------------------|-----------------------|----------------------|
----------------------|-----------------------|----------------------|
----------------------|-----------------------|----------------------|
----------------------|-----------------------|----------------------|
----------------------|-----------------------|----------------------|
--0-------------------|--2----2-----1---------|--0-------------------|


                                                            
-----------------------|----------------------|--0------------------|
-----------------------|----------------------|---------------------|
-----------------------|----------------------|---------------------|
-----------------------|----------------------|--2--------2----2----|
-----------------------|----------------------|--x--------2----2----|
--2----2-----1---------|--0-------------------|-----------2----2----|


                                                           
-----------------------|--0------------------|-----------------------|
-----------------------|---------------------|-----------------------|
------------0----------|---------------------|------------0----------|
--3----3----0-----3----|--2--------2----2----|--3----3----0-----3----|
--3----3----------3----|--x--------2----2----|--3----3----------3----|
--3----3----5-----3----|-----------2----2----|--3----3----5-----3----|


                                                          
--0------------------|-----------------------|--0------------------|
---------------------|-----------------------|---------------------|
---------------------|------------0----------|---------------------|
--2--------2----2----|--3----3----0-----3----|--2--------2----2----|
--x--------2----2----|--3----3----------3----|--x--------2----2----|
-----------2----2----|--3----3----5-----3----|-----------2----2----|


                                                          
---------------------|---------------------|-----------------------|
---------------------|---------------------|-----------------------|
---------------------|---------------------|------------0----------|
--3----3----0--------|-----------2----2----|--3----3----0-----3----|
--3----3----0--------|-----------2----2----|--3----3----------3----|
--3----3----0--------|-----------2----2----|--3----3----5-----3----|


                                                          
--0------------------|-----------------------|--0------------------|
---------------------|-----------------------|---------------------|
---------------------|------------0----------|---------------------|
--2--------2----2----|--3----3----0-----3----|--2--------2----2----|
--x--------2----2----|--3----3----------3----|--x--------2----2----|
-----------2----2----|--3----3----5-----3----|-----------2----2----|


                                                          
-----------------------|--0------------------|---------------------|
-----------------------|---------------------|---------------------|
------------0----------|---------------------|---------------------|
--3----3----0-----3----|--2--------2----2----|--3----3----0--------|
--3----3----------3----|--x--------2----2----|--3----3----0--------|
--3----3----5-----3----|-----------2----2----|--3----3----0--------|


                 
                                                           
----------------------|----------------------|-------------------||
----------------------|----------------------|-------------------||
----------------------|----------------------|-------------------||
----------------------|----------------------|-------------------||
----------------------|----------------------|-------------------||
--2----3----2----3----|--2----3----2----3----|-------------------||
            
Hard to play? Try these video lessons and learn fast. | Correct




comments powered by Disqus
↑ Back to top | Tablatures and chords are parodies/interpretations of the original songs. You may use it for private study, scholarship, research or language learning purposes only