» » »

Korn, Clown Tabs (ver.3)

Artists:  A B C D E F G H I J K L M N O P Q R S T U V W X Y Z # 

Clown Tabs (ver.3)

Korn Tabs
 Rating:
4/5 (4 votes)
Clown lessons Tabs too difficult? Try these video lessons and learn fast
1
                KoRn
Clown (6-string)
Tuning (low to high) A,E,A,D,G,B


Intro
|---------------------------------------------------------------------------|
|---------------------------------------------------------------------------|
|--------------6b--------------5b--------------5b--------------5-grad.bend--|
|---------------------------------------------------------------------------|
|---------------------------------------------------------------------------|
|--0-0-0-0-0-------0-0-0-0-0-------0-0-0-0-0-------0-0-0-0-0----------------|
pm . . . . .       . . . . .       . . . . .       . . . . .

|------------------------------------------------------------------|
|------------------------------------------------------------------|
|------------------------------------------------------------------|
|--3-4-3-2-3-2-3-4-3-2-3-2-3-4-2---3-4-3-2-3-2-3-4-3-2-3-2-3-4-2---|
|--3-4-3-2-3-2-3-4-3-2-3-2-3-4-2---3-4-3-2-3-2-3-4-3-2-3-2-3-4-2---|
|--3-4-3-2-3-2-3-4-3-2-3-2-3-4-2---3-4-3-2-3-2-3-4-3-2-3-2-3-4-2---|

|------------------------------------------------------------------|
|------------------------------------------------------------------|
|------------------------------------------------------------------|
|--3-4-3-2-3-2-3-4-3-2-3-2-3-4-2---3-4-3-2-3-2-3-4-3-2-3-2-3-4-2---|
|--3-4-3-2-3-2-3-4-3-2-3-2-3-4-2---3-4-3-2-3-2-3-4-3-2-3-2-3-4-2---|
|--3-4-3-2-3-2-3-4-3-2-3-2-3-4-2---3-4-3-2-3-2-3-4-3-2-3-2-3-4-2---|

|------------------------------------------------------------------|
|------------------------------------------------------------------|
|------------------------------------------------------------------|
|--3/4---2/3---3/4---2/3---3/4-2---3/4---2/3---3/4---2/3---3/4-2---|
|--3/4---2/3---3/4---2/3---3/4-2---3/4---2/3---3/4---2/3---3/4-2---|
|--3/4---2/3---3/4---2/3---3/4-2---3/4---2/3---3/4---2/3---3/4-2---|

|------------------------------------------------------------------|
|------------------------------------------------------------------|
|------------------------------------------------------------------|
|--3/4---2/3---3/4---2/3---3/4-2---3/4---2/3---3/4---2/3---3/4-2---|
|--3/4---2/3---3/4---2/3---3/4-2---3/4---2/3---3/4---2/3---3/4-2---|
|--3/4---2/3---3/4---2/3---3/4-2---3/4---2/3---3/4---2/3---3/4-2---|

verse (2nd guitar does little mini pick scr*pes throuout)
|------------------------------------------------------------------|
|------------------------------------------------------------------|
|------------------------------------------------------------------|
|------------------------------------------------------------------|
|------------------------------------------------------------------|
|--3-4-3-2-3-2-3-4-3-2-3-2-3-4-2---3-4-3-2-3-2-3-4-3-2-3-2-3-4-2---|
  'Anger...'

|------------------------------------------------------------------|
|------------------------------------------------------------------|
|------------------------------------------------------------------|
|------------------------------------------------------------------|
|------------------------------------------------------------------|
|--3-4-3-2-3-2-3-4-3-2-3-2-3-4-2---3-4-3-2-3-2-3-4-3-2-3-2-3-4-2---|
'...within...'

|------------------------------------------------------------------|
|------------------------------------------------------------------|
|------------------------------------------------------------------|
|------------------------------------------------------------------|
|------------------------------------------------------------------|
|--3-4-3-2-3-2-3-4-3-2-3-2-3-4-2---3-4-3-2-3-2-3-4-3-2-3-2-3-4-2---|
  'Why...'

|------------------------------------------------------------------|
|------------------------------------------------------------------|
|------------------------------------------------------------------|
|------------------------------------------------------------------|
|------------------------------------------------------------------|
|--3-4-3-2-3-2-3-4-3-2-3-2-3-4-2---3-4-3-2-3-2-3-4-3-2-3-2-3-4-2---|
'...done?...'

Chorus
|--------------------------------------------------|
|--------------------------------------------------|
|--------------------------------------------------|
|--0-------3-2-2-2-2-1-1-1-0-------3-2-2-2-2-1-1-1-|
|--0-------3-2-2-2-2-1-1-1-0-------3-2-2-2-2-1-1-1-|
|--0-------3-2-2-2-2-1-1-1-0-------3-2-2-2-2-1-1-1-|
  'Scream...'

|--------------------------------------------------|
|--------------------------------------------------|
|--------------------------------------------------|
|--0-------3-2-2-2-2-1-1-1-0-------3-2-2-2-2-1-1-1-|
|--0-------3-2-2-2-2-1-1-1-0-------3-2-2-2-2-1-1-1-|
|--0-------3-2-2-2-2-1-1-1-0-------3-2-2-2-2-1-1-1-|
  'Hit me...'

|--------------------------------------------------|
|--------------------------------------------------|
|--------------------------------------------------|
|--0-------3-2-2-2-2-1-1-1-0-------3-2-2-2-2-1-1-1-|
|--0-------3-2-2-2-2-1-1-1-0-------3-2-2-2-2-1-1-1-|
|--0-------3-2-2-2-2-1-1-1-0-------3-2-2-2-2-1-1-1-|
  'what's...'

|--------------------------------------------------|
|--------------------------------------------------|
|--------------------------------------------------|
|--0-------3-2-2-2-2-1-1-1-0-------3-2-2-2-2-1-1-1-|
|--0-------3-2-2-2-2-1-1-1-0-------3-2-2-2-2-1-1-1-|
|--0-------3-2-2-2-2-1-1-1-0-------3-2-2-2-2-1-1-1-|
  'Scared...'

|---------------------------------------------------------------------------|
|---------------------------------------------------------------------------|
|--------------6b--------------5b--------------5b---------------------------|
|---------------------------------------------------------------------------|
|---------------------------------------------------------------------------|
|--0-0-0-0-0-------0-0-0-0-0-------0-0-0-0-0-------0-0-0-0-0----------------|
pm . . . . .       . . . . .       . . . . .       . . . . .

Verse 2
|------------------------------------------------------------------|
|------------------------------------------------------------------|
|------------------------------------------------------------------|
|------------------------------------------------------------------|
|------------------------------------------------------------------|
|--3-4-3-2-3-2-3-4-3-2-3-2-3-4-2---3-4-3-2-3-2-3-4-3-2-3-2-3-4-2---|
  'I...'

|------------------------------------------------------------------|
|------------------------------------------------------------------|
|------------------------------------------------------------------|
|------------------------------------------------------------------|
|------------------------------------------------------------------|
|--3-4-3-2-3-2-3-4-3-2-3-2-3-4-2---3-4-3-2-3-2-3-4-3-2-3-2-3-4-2---|
'...be...'

|------------------------------------------------------------------|
|------------------------------------------------------------------|
|------------------------------------------------------------------|
|------------------------------------------------------------------|
|------------------------------------------------------------------|
|--3-4-3-2-3-2-3-4-3-2-3-2-3-4-2---3-4-3-2-3-2-3-4-3-2-3-2-3-4-2---|
  'Look...'

|------------------------------------------------------------------|
|------------------------------------------------------------------|
|------------------------------------------------------------------|
|------------------------------------------------------------------|
|------------------------------------------------------------------|
|--3-4-3-2-3-2-3-4-3-2-3-2-3-4-2---3-4-3-2-3-2-3-4-3-2-3-2-3-4-2---|
'...free...'

Chorus
|--------------------------------------------------|
|--------------------------------------------------|
|--------------------------------------------------|
|--0-------3-2-2-2-2-1-1-1-0-------3-2-2-2-2-1-1-1-|
|--0-------3-2-2-2-2-1-1-1-0-------3-2-2-2-2-1-1-1-|
|--0-------3-2-2-2-2-1-1-1-0-------3-2-2-2-2-1-1-1-|
  'Scream...'

|--------------------------------------------------|
|--------------------------------------------------|
|--------------------------------------------------|
|--0-------3-2-2-2-2-1-1-1-0-------3-2-2-2-2-1-1-1-|
|--0-------3-2-2-2-2-1-1-1-0-------3-2-2-2-2-1-1-1-|
|--0-------3-2-2-2-2-1-1-1-0-------3-2-2-2-2-1-1-1-|
  'Hit me...'

|--------------------------------------------------|
|--------------------------------------------------|
|--------------------------------------------------|
|--0-------3-2-2-2-2-1-1-1-0-------3-2-2-2-2-1-1-1-|
|--0-------3-2-2-2-2-1-1-1-0-------3-2-2-2-2-1-1-1-|
|--0-------3-2-2-2-2-1-1-1-0-------3-2-2-2-2-1-1-1-|
  'what's...'

|--------------------------------------------------|
|--------------------------------------------------|
|--------------------------------------------------|
|--0-------3-2-2-2-2-1-1-1-0-------3-2-2-2-2-1-1-1-|
|--0-------3-2-2-2-2-1-1-1-0-------3-2-2-2-2-1-1-1-|
|--0-------3-2-2-2-2-1-1-1-0-------3-2-2-2-2-1-1-1-|
  'Scared...'

|--------------------------|
|--------------------------|
|--------------------------|
|--------------------------|
|--------------------------|
|--------------------------|
 'To come out.'

Interlude, pt. 1
|--------------------------------------------------|
|--------------------------------------------------|
|----------6b--------6b----------6b----------------|
|--0---0-0-----0-0-0-----0---0-0-----0-0-0-0---1---|
|--0---0-0-----0-0-0-----0---0-0-----0-0-0-0---1---|
|--0---0-0-----0-0-0-----0---0-0-----0-0-0-0---1---|
pm     . .     . . .         . .     . . . 

|--------------------------------------------------|
|--------------------------------------------------|
|----------6b--------6b----------6b----------------|
|--0---0-0-----0-0-0-----0---0-0-----0-0-0-0---1---|
|--0---0-0-----0-0-0-----0---0-0-----0-0-0-0---1---|
|--0---0-0-----0-0-0-----0---0-0-----0-0-0-0---1---|
pm     . .     . . .         . .     . . . 

|--------------------------------------------------|
|--------------------------------------------------|
|----------6b--------6b----------6b----------------|
|--0---0-0-----0-0-0-----0---0-0-----0-0-0-0---1---|
|--0---0-0-----0-0-0-----0---0-0-----0-0-0-0---1---|
|--0---0-0-----0-0-0-----0---0-0-----0-0-0-0---1---|
pm     . .     . . .         . .     . . . 
  'Hit me clown...'

|--------------------------------------------------|
|--------------------------------------------------|
|----------6b--------6b----------6b----------------|
|--0---0-0-----0-0-0-----0---0-0-----0-0-0-0---1---|
|--0---0-0-----0-0-0-----0---0-0-----0-0-0-0---1---|
|--0---0-0-----0-0-0-----0---0-0-----0-0-0-0---1---|
pm     . .     . . .         . .     . . . 
  'Hit me clown...'

pt. 2
|------------------------------------------------------------------|
|------------------------------------------------------------------|
|------------------------------------------------------------------|
|----------------------------------3-4-3-2-3-2-3-4-3-2-3-2-3-4-2---|
|----------------------------------3-4-3-2-3-2-3-4-3-2-3-2-3-4-2---|
|----------------------------------3-4-3-2-3-2-3-4-3-2-3-2-3-4-2---|

|------------------------------------------------------------------|
|------------------------------------------------------------------|
|------------------------------------------------------------------|
|--3-4-3-2-3-2-3-4-3-2-3-2-3-4-2---3-4-3-2-3-2-3-4-3-2-3-2-3-4-2---|
|--3-4-3-2-3-2-3-4-3-2-3-2-3-4-2---3-4-3-2-3-2-3-4-3-2-3-2-3-4-2---|
|--3-4-3-2-3-2-3-4-3-2-3-2-3-4-2---3-4-3-2-3-2-3-4-3-2-3-2-3-4-2---|

|------------------------------------------------------------------|
|------------------------------------------------------------------|
|------------------------------------------------------------------|
|--3/4---2/3---3/4---2/3---3/4-2---3/4---2/3---3/4---2/3---3/4-2---|
|--3/4---2/3---3/4---2/3---3/4-2---3/4---2/3---3/4---2/3---3/4-2---|
|--3/4---2/3---3/4---2/3---3/4-2---3/4---2/3---3/4---2/3---3/4-2---|
  'Clown you ain't ***...'

|------------------------------------------------------------------|
|------------------------------------------------------------------|
|------------------------------------------------------------------|
|--3/4---2/3---3/4---2/3---3/4-2---3/4---2/3---3/4---2/3---3/4-2---|
|--3/4---2/3---3/4---2/3---3/4-2---3/4---2/3---3/4---2/3---3/4-2---|
|--3/4---2/3---3/4---2/3---3/4-2---3/4---2/3---3/4---2/3---3/4-2---|
  'Clown you ain't ***...'

Chorus
|--------------------------------------------------|
|--------------------------------------------------|
|--------------------------------------------------|
|--0-------3-2-2-2-2-1-1-1-0-------3-2-2-2-2-1-1-1-|
|--0-------3-2-2-2-2-1-1-1-0-------3-2-2-2-2-1-1-1-|
|--0-------3-2-2-2-2-1-1-1-0-------3-2-2-2-2-1-1-1-|
  'Turn...'

|--------------------------------------------------|
|--------------------------------------------------|
|--------------------------------------------------|
|--0-------3-2-2-2-2-1-1-1-0-------3-2-2-2-2-1-1-1-|
|--0-------3-2-2-2-2-1-1-1-0-------3-2-2-2-2-1-1-1-|
|--0-------3-2-2-2-2-1-1-1-0-------3-2-2-2-2-1-1-1-|
  'Hit me...'

|--------------------------------------------------|
|--------------------------------------------------|
|--------------------------------------------------|
|--0-------3-2-2-2-2-1-1-1-0-------3-2-2-2-2-1-1-1-|
|--0-------3-2-2-2-2-1-1-1-0-------3-2-2-2-2-1-1-1-|
|--0-------3-2-2-2-2-1-1-1-0-------3-2-2-2-2-1-1-1-|
  'what's...'

|--------------------------------------------------|
|--------------------------------------------------|
|--------------------------------------------------|
|--0-------3-2-2-2-2-1-1-1-0-------3-2-2-2-2-1-1-1-|
|--0-------3-2-2-2-2-1-1-1-0-------3-2-2-2-2-1-1-1-|
|--0-------3-2-2-2-2-1-1-1-0-------3-2-2-2-2-1-1-1-|
  'Scared...'

Ending
|------------------------------------------------------------------|
|------------------------------------------------------------------|
|------------------------------------------------------------------|
|------------------------------------------------------------------|
|------------------------------------------------------------------|
|--0-0-0-0-0-------0-0-0-0-0-------0-0-0-0-0-------0-0-0-0-0-------|
             'Just a ***ing little...'

|------------------------------------------------------------------|
|------------------------------------------------------------------|
|------------------------------------------------------------------|
|------------------------------------------------------------------|
|------------------------------------------------------------------|
|--0-0-0-0-0-------0-0-0-0-0-------0-0-0-0-0-------0-0-0-0-0-------|
             'Just a ***ing little...'

~I'm fairly sure that this is accurate. If not, then screw it :)
            
Submit corrections

comments powered by Disqus
↑ Back to top | Korn Tabs for Clown. Lyrics for acoustic guitar and electric guitar. 1 Tablatures and chords are parodies/interpretations of the original songs. You may use it for private study, scholarship, research or language learning purposes only