>
 >
Cameltosis

Cameltosis Guitar Tabs

Korn - Cameltosis chords, tabs, tablatures, lyrics

Guitar lessons | Add/correct | Request | Top 50 tabs Artists:  A B C D E F G H I J K L M N O P Q R S T U V W X Y Z 0-9

Cameltosis Guitar Tabs – Korn

CD, Sheet music, Poster

Do you like Cameltosis? Share with your friends now
Drum TabsTabsTabs v2
KoRn - Cameltosis
This is very close to the song. I don't know anything about
pedals so I don't know which Munky and Head use. All I know
is this sounds accurate so enjoy!!



Riff 1-Munky

e ||-------------------------------------------14-15-14----------------------
B ||-------------------------------------------------------------------------
G ||--15/14-14--15/14-14--15/14-15/14-14-15/14-----------15/14-14--15/14-14--
D ||-------------------------------------------------------------------------
A ||-------------------------------------------------------------------------
E ||-------------------------------------------------------------------------

e ||---------------------------------
B ||-----------------------14-15-14--
G ||--15/14-15/14-14-15/14-----------
D ||---------------------------------
A ||---------------------------------
E ||---------------------------------

Riff 2-Head (Munky still plays riff 1)
////= slow slide

e ||----------------------------
B ||---------------0/0\0--------
G ||--1////13-12-5-3/4\3--------
D ||----------------------------
A ||----------------------------
E ||----------------------------

Riff 3-Head (play this just as Jon starts to sing)
e ||--------
B ||--0~~~--
G ||--3~~~--
D ||--------
A ||--------
E ||--------

***At 2nd verse Munky and Head play play Riffs 1 and 2 together***

Chorus-Head and Munky
e ||--------------0/-------------0/--
B ||--------------4/-------------4/--
G ||--------------6/-------------6/--
D ||---------------------------------
A ||--3/--3-3-5------2/--2-2-6-------
E ||--3/--3-3-3------2/--2-2-4-------

at 2:25 they play something i'm not sure of because they use some sort of pedal

at 2:42 after Jon yells "JUST TAKE ME AWAY!!", I'm pretty sure they play:
[when  appear around a number, play a harmonic!!)
e ||-----------------
B ||-----------------
G ||-----------------
D ||--9--------------
A ||--9----9----9----
E ||--7----7----7----





Comments


Popular Korn tabs & chords
Bbk Bass Tabs
K@#ø%! 1 Bass Tabs
Porno Creep Bass Tabs
Coming Undone 1 Tabs
Hating Intro Tabs
No Way 2 Tabs
Right Now 3 Tabs
Seed Tabs
Tear Me Down Tabs
Wicked 2 Tabs


Song lyrics



↑ Back to top | Tablatures and chords are parodies/interpretations of the original songs. You may use it for private study, scholarship, research or language learning purposes only
© 2014 AZChords.com Contact us | Privacy policy | DMCA | Add/correct tabs | Request tabs | Top 50 tabs