» » »

Ball Toungue Bass tabs (ver.1)

Artists:  A B C D E F G H I J K L M N O P Q R S T U V W X Y Z # 

Ball Toungue Bass tabs (ver.1)

Korn
Rating:
0/5 (0 votes)

Hard to play? Try these video lessons and learn fast.
                -------------------------
***BALL TOUNGUE---KORN***
-------------------------

Written by Korn


5-string Bass in Dropped A tuning (A,E,A,D,G)
All notes are slapped except where indicated


INTRO

G|-----------------------------------------|
D|-----------------------------------------|  PLAY FOUR
A|-----------------------------------------|    TIMES
E|-------X--3\2----------X--X--6--5--X--X--|
A|--6\5----------X--6\5--------------------|

BASS SOLO

A|-----------------------------------------|
E|-------X--3\2----------X--6--X--X--X--3--|
A|--6\5----------X--6\5--------------------|

A|-----------------------------------------|
E|-------X--3\2----------X--6-----------3--|
A|--6\5----------X--6\5--------5--5--5-----|

PRE-VERSE

A|---------------------------|  PLAY   --|
E|---------------------------|  THREE    |
A|--6\5----6\5--6\5--X--6\5--|  TIMES    |
                                         |---PLAY ALL OF THIS TWICE
A|--------------------------|            |
E|--------------6--X--X--5--|            |
A|--6\5----6\5--------------|          --|


A|--------------------------------------
E|--------------------------------------
A|--0--0--X--X--X--0--0--X--2--2--3--3--

A|--------------------------------------
E|--------------------------------------
A|--0--0--X--X--X--0--0--X--0--2--3--2--

A|--------------------------------------
E|--------------------------------------
A|--0--0--X--X--X--0--0--X--2--2--3--3--

A|--------------------------
E|--------------------------   *
A|--0--X--X--X--X--X--X--X--

     * FOR THE MUTED NOTES, GRADUALLY MOVE YOUR THUMB CLOSER AND CLOSER
        TO THE BRIDGE WHILE YOU SLAP
VERSE

A|-----------------------------------
E|-----------------------------------
A|--0--0--X--X--X--0--X--2--2--3--3--

A|-------------------------------------|
E|-------------------------------------|
A|--0--0--X--X--X--0--0--X--0--2--3--0-|


CHORUS/OUTRO

A|-------------------------------|---------------------------------|
E|-------------------------------|---------------------------------|
A|--0--0----0--0--0-----0--2--3--|--0--0---0--0--0-----2--3--2--0--|
 
 This part is exactly the same as the verse riff, except that you don't
 play the muted notes. 

BRIDGE

A|--0--12----------|
E|---------12------| *
A|-----------------|

 * Don't slap this riff
            
Hard to play? Try these video lessons and learn fast. | Correct




comments powered by Disqus
↑ Back to top | Tablatures and chords are parodies/interpretations of the original songs. You may use it for private study, scholarship, research or language learning purposes only