» » »

Kool And The Gang, Too Hot Bass tabs (ver.1)

Artists:  A B C D E F G H I J K L M N O P Q R S T U V W X Y Z # 

Too Hot Bass tabs (ver.1)

Kool And The Gang Tabs
 Rating:
4/5 (4 votes)
Too Hot lessons Tabs too difficult? Try these video lessons and learn fast
                Band : Kool and The Gang
Song : Too Hot
Difficulty: Novice
Tuning : Standard




G|----------------------------------------------------------|
D|----------------------------------------------------------|
A|--3--3-3-33--1----------------------------1--1-1-11--2----|
E|----------------3--3-3-33----1--1-1-11--------------------|X4

G|----------------------------------------------------------|
D|----------------------------------------------------------|
A|--3--3-3-33--2--0--0-0-00---------------------------------|
E|-----------------------------1--1-1-11----3--3-3-33-------|


G|----------------------------------------------------------|
D|----------------------------------------------------------|
A|--3--3-3-33--2--0--0-0-00---------------------------------|
E|----------------------------7\1--1-1-11----3--3-3-33------|

G|----------------------------------------------------------|
D|----------------------------------------------------------|
A|--3--3-3-33---2--2-2-22---1--1-1-11---0--0-0-00-----------|
E|----------------------------------------------------------|

G|----------------------------------------------------------|
D|----------------------------------------------------------|
A|-8/3--3-3-33---2--2-2-22---1--1-1-11---0--0-0-00----------|
E|----------------------------------------------------------|


G|----------------------------------|
D|----------------------------------|
A|--------------1--1-1-11--2--------|
E|--1--1-1-11-----------------------|

G|----------------------------------------------------------|
D|----------------------------------------------------------|
A|--3--3-3-33--1----------------------------1--1-1-11--2----|
E|----------------3--3-3-33----1--1-1-11--------------------|X3

G|-------------------------------------------------------------|
D|-------------------------------------------------------------|
A|--3--3-3-33--2--0--0-0-00----------------------------x0-1-2--|
E|-----------------------------1--1-1-11----3--3-3-33----------|


G|----------------------------------------------------------|
D|----------------------------------------------------------|
A|--3--3-3-33--2--0--0-0-00---8\----------------------------|
E|------------------------------1--1-1-11----3--3-3-33------|

G|----------------------------------------------------------|
D|----------------------------------------------------------|
A|--3--3-3-33---2--2-2-22---1--1-1-11---0--0-0-00-----------|
E|----------------------------------------------------------|X2

G|------------------------------------------------------------------------------|
D|------------------------------------------------------------------------------|
A|--------------1--1-1-11---0-----------0-------------------------1--1-1-11--2--|
E|--1--1-1-11---------------------------------------7/1--1-1-11-----------------|

G|----------------------------------------------------------|
D|----------------------------------------------------------|
A|--3--3-3-33--1----------------------------1--1-1-11--2----|
E|----------------3--3-3-33----1--1-1-11--------------------|X2

G|----------------------------------------------------------|
D|----------------------------------------------------------|
A|--3--3-3-33--2--0--0-0-00---------------------------------|
E|----------------------------7\1--1-1-11----3--3-3-33------|

G|----------------------------------------------------------|
D|----------------------------------------------------------|
A|--3--3-3-33--2--0--0-0-00---------------------------------|
E|------------------------------1--1-1-11----3--3-3-33------|


G|----------------------------------------------------------|
D|----------------------------------------------------------|
A|-8/3--3-3-33---2--2-2-22---1--1-1-11---0--0-0-011-22------|
E|----------------------------------------------------------|


G|----------------------------------------------------------|
D|----------------------------------------------------------|
A|--3--3-3-33---2--2-2-22---1--1-1-11---0--0-0-00-----------|
E|----------------------------------------------------------|x3

G|----------------------------------------------------------|
D|----------------------------------------------------------|
A|--3--3-3-33---2--2-2-22---1--1-1-11---0--0-0-011-22-------|
E|----------------------------------------------------------|

G|----------------------------------------------------------|
D|----------------------------------------------------------|
A|--3--3-3-33---2--2-2-22---1--1-1-11---0--0-0-00-----------|
E|----------------------------------------------------------|x3

G|----------------------------------------------------------|
D|----------------------------------------------------------|
A|--3--3-3-33---2--2-2-22---1--1-1-11---0--0-0-011-22-------|
E|----------------------------------------------------------|

G|----------------------------------------------------------|
D|----------------------------------------------------------|
A|--3--3-3-33---2--2-2-22---1--1-1-11---0--0-0-011-22-------|
E|----------------------------------------------------------| (till the end)
            
Submit corrections

comments powered by Disqus
↑ Back to top | Kool And The Gang Bass for Too Hot. Lyrics for acoustic guitar and electric guitar. Tablatures and chords are parodies/interpretations of the original songs. You may use it for private study, scholarship, research or language learning purposes only