» » »

Holly Wood Swingin Tabs (ver.1)

Artists:  A B C D E F G H I J K L M N O P Q R S T U V W X Y Z # 

Holly Wood Swingin Tabs (ver.1)

Kool And The Gang
Rating:
0/5 (0 votes)
Tabs too difficult? Try these video lessons and learn fast.
                their favorite band is very therapeutic. Helping others to do this is equally
therapeutic. Tab files should not be interpreted as copyright infringement! This
song, is (c) 1972 by Kool & The Gang. (I was born that year!)

Kool & The Gang

Version 1.0
Shawn Chittle
April 2001

Playing Notes:

1. Just one bass guitar (looped) and one rhythm guitar. As with many classics,
   this song is very easy to play. Just get the rhythm down and you are set.

2. I am omitting lyrics since the whole song is based on this simple arrangement.


Intro horns

Bass riff (repeated throughout whole song)

G--------------------------------------------|
D--------------------------------------------|
A--------------------------------------------|
E--0-0-0---4-2-0---2-3-4---4-2-0-------------|

Guitar riff A (played once per loop)

E---------------------16---------------------|
B---------------------15---------------------|
G---------------------13---------------------|
D--------------------------------------------|
A--------------------------------------------|
E--------------------------------------------|
  Hey Hey Hey

Guitar riff B (played three times per loop)

E---------------------7----------------------|
B---------------------7----------------------|
G---------------------7----------------------|
D--------------------------------------------|
A--------------------------------------------|
E--------------------------------------------|
  What ya got to say


Outro (guitar tacet) horns
            
Tabs too difficult? Try these video lessons and learn fast.


comments powered by Disqus
↑ Back to top | Tablatures and chords are parodies/interpretations of the original songs. You may use it for private study, scholarship, research or language learning purposes only