» » »

Hi De Hi, Hi De Ho Bass tabs (ver.1)

Artists:  A B C D E F G H I J K L M N O P Q R S T U V W X Y Z # 

Hi De Hi, Hi De Ho Bass tabs (ver.1)

Kool And The Gang
Rating:
0/5 (0 votes)

Tabs too difficult? Try these video lessons and learn fast.
                Kool & the Gang - Hi De Hi, Hi De Ho


Main riff (play this throughout the whole song):
G|-------------------------7h9------------------------------|
D|-------------------5--------------------------------------|
A|---------------5-7---77----------------------5-77--7------|
E|-0--3--5---7-7----------------0--3--5\---7-7--------------|

Bridge (2:13-2:32):
G|----------------------------------------------------------|
D|----------------------------------------------------------|  2x
A|-----------5-7-7x5-7--------------------------------------|
E|-7-7x5-7-7-------------5-x55-7-x77-8-x88-3--3-------------|
            
Tabs too difficult? Try these video lessons and learn fast.




comments powered by Disqus
↑ Back to top | Tablatures and chords are parodies/interpretations of the original songs. You may use it for private study, scholarship, research or language learning purposes only