>
 >
Big Fun

Big Fun Bass Tabs

Kool And The Gang - Big Fun chords, tabs, tablatures, lyrics

Guitar lessons | Add/correct | Request | Top 50 tabs Artists:  A B C D E F G H I J K L M N O P Q R S T U V W X Y Z 0-9

Big Fun Bass Tabs – Kool And The Gang

CD, Sheet music, Poster

Do you like Big Fun? Share with your friends now
Bass Tabs
INTRO:
  e e e e q    s h                               s h                  
G|-------------911|----------------|-------------911|----------------|
D*----------------|----------------|----------------|----------------|
A*9-9-9-9-9\------|9-9-9-9-9\------|9-9-9-9-9\------|9-9-9-9-9\------|
E|----------------|----------------|----------------|----------------|
  1 + 2 + 3 + 4 +  1 + 2 + 3 + 4 +  1 + 2 + 3 + 4 +  1 + 2 + 3 + 4 +  

MAIN-RIFF (Chorus + Verse):
						  all 8 bars   6x!
G|----------------|----------------|----------------|----------------|
D--------4-4---X-|9---7---6-6-5---|--------4-4---9-|9---7---6-6-5---|
A4-4-4-7---------|----------------|4-4-4-7---------|----------------|
E|----------------|----------------|----------------|----------------|
  1 + 2 + 3 + 4 +  1 + 2 + 3 + 4 +  1 + 2 + 3 + 4 +  1 + 2 + 3 + 4 +  

                                                                      
G|----------------|----------------|----------------|----------------|
D|--------4-4---X-|9---7---6-6-5---|--------4-4---9-|9---7---6-6-5---|
A|4-4-4-7---------|----------------|4-4-4-7---------|----------------|
E|----------------|----------------|----------------|----------------|
  1 + 2 + 3 + 4 +  1 + 2 + 3 + 4 +  1 + 2 + 3 + 4 +  1 + 2 + 3 + 4 +  


BRIDGE 1: (1:56)
                                                                      
G|----------------|----------------|----------------|----------------|
D|--------4-4----4|4---4---4-4-4---|----------------|----------------|
A|4-4-4-7---------|----------------|---------7-7---7|7---7---7-7-7---|
E|----------------|----------------|7-7-7-10--------|----------------|
  1 + 2 + 3 + 4 +  1 + 2 + 3 + 4 +  1 + 2 + 3 + 4 +  1 + 2 + 3 + 4 +  

                                                                      
G|----------------|----------------|----------------|----------------|
D|--------4-4----4|4---4---4-4-4---|---------------7|9---7---6-6-5---|
A|4-4-4-7---------|----------------|---------7-7----|----------------|
E|----------------|----------------|7-7-7-10--------|----------------|
  1 + 2 + 3 + 4 +  1 + 2 + 3 + 4 +  1 + 2 + 3 + 4 +  1 + 2 + 3 + 4 +  

MAIN-RIFF [3x](2:12) 

BRIDGE 2: (3:01)

G|----------------|----------------|----------------|----------------|
D--------4-4-----|------4-7---4---|--------4-4-----|------4-7---4---|
A4-4-4-7---------|4---7-----------|4-4-4-7---------|4---7-----------|
E|----------------|----------------|----------------|----------------|
  1 + 2 + 3 + 4 +  1 + 2 + 3 + 4 +  1 + 2 + 3 + 4 +  1 + 2 + 3 + 4 +  

MAIN-RIFF [5x](3:18) 





Comments


Popular Kool And The Gang tabs & chords
Holly Wood Swingin 1 Bass Tabs
Jungle Boogie 1 Bass Tabs
Too Hot Bass Tabs
Celebration Chords
Ladies Night Chords
Summer Madness Chords
Celebration Tabs
Hollywood Swingin' Tabs
Jungle Boogie Tabs
More Funky Stuff Tabs


Song lyrics



↑ Back to top | Tablatures and chords are parodies/interpretations of the original songs. You may use it for private study, scholarship, research or language learning purposes only
© 2014 AZChords.com Contact us | Privacy policy | DMCA | Add/correct tabs | Request tabs | Top 50 tabs