» » »

Kool And The Gang, Big Fun Bass tabs (ver.1)

Artists:  A B C D E F G H I J K L M N O P Q R S T U V W X Y Z # 

Big Fun Bass tabs (ver.1)

Kool And The Gang Tabs
 Rating:
4/5 (4 votes)
Big Fun lessons Tabs too difficult? Try these video lessons and learn fast
1
                INTRO:
  e e e e q    s h                               s h                  
G|-------------911|----------------|-------------911|----------------|
D*----------------|----------------|----------------|----------------|
A*9-9-9-9-9\------|9-9-9-9-9\------|9-9-9-9-9\------|9-9-9-9-9\------|
E|----------------|----------------|----------------|----------------|
  1 + 2 + 3 + 4 +  1 + 2 + 3 + 4 +  1 + 2 + 3 + 4 +  1 + 2 + 3 + 4 +  

MAIN-RIFF (Chorus + Verse):
						  all 8 bars   6x!
G|----------------|----------------|----------------|----------------|
D•--------4-4---X-|9---7---6-6-5---|--------4-4---9-|9---7---6-6-5---|
A•4-4-4-7---------|----------------|4-4-4-7---------|----------------|
E|----------------|----------------|----------------|----------------|
  1 + 2 + 3 + 4 +  1 + 2 + 3 + 4 +  1 + 2 + 3 + 4 +  1 + 2 + 3 + 4 +  

                                                                      
G|----------------|----------------|----------------|----------------|
D|--------4-4---X-|9---7---6-6-5---|--------4-4---9-|9---7---6-6-5---|
A|4-4-4-7---------|----------------|4-4-4-7---------|----------------|
E|----------------|----------------|----------------|----------------|
  1 + 2 + 3 + 4 +  1 + 2 + 3 + 4 +  1 + 2 + 3 + 4 +  1 + 2 + 3 + 4 +  


BRIDGE 1: (1:56)
                                                                      
G|----------------|----------------|----------------|----------------|
D|--------4-4----4|4---4---4-4-4---|----------------|----------------|
A|4-4-4-7---------|----------------|---------7-7---7|7---7---7-7-7---|
E|----------------|----------------|7-7-7-10--------|----------------|
  1 + 2 + 3 + 4 +  1 + 2 + 3 + 4 +  1 + 2 + 3 + 4 +  1 + 2 + 3 + 4 +  

                                                                      
G|----------------|----------------|----------------|----------------|
D|--------4-4----4|4---4---4-4-4---|---------------7|9---7---6-6-5---|
A|4-4-4-7---------|----------------|---------7-7----|----------------|
E|----------------|----------------|7-7-7-10--------|----------------|
  1 + 2 + 3 + 4 +  1 + 2 + 3 + 4 +  1 + 2 + 3 + 4 +  1 + 2 + 3 + 4 +  

MAIN-RIFF [3x](2:12) 

BRIDGE 2: (3:01)

G|----------------|----------------|----------------|----------------|
D•--------4-4-----|------4-7---4---|--------4-4-----|------4-7---4---|
A•4-4-4-7---------|4---7-----------|4-4-4-7---------|4---7-----------|
E|----------------|----------------|----------------|----------------|
  1 + 2 + 3 + 4 +  1 + 2 + 3 + 4 +  1 + 2 + 3 + 4 +  1 + 2 + 3 + 4 +  

MAIN-RIFF [5x](3:18) 
            
Submit corrections

comments powered by Disqus
↑ Back to top | Kool And The Gang Bass for Big Fun. Lyrics for acoustic guitar and electric guitar. 1 Tablatures and chords are parodies/interpretations of the original songs. You may use it for private study, scholarship, research or language learning purposes only