>
 >
Metal Gear Solid Skateboarding Theme

Metal Gear Solid Skateboarding Theme Guitar Tabs

Konami - Metal Gear Solid Skateboarding Theme chords, tabs, tablatures, lyrics

Guitar lessons | Add/correct | Request | Top 50 tabs Artists:  A B C D E F G H I J K L M N O P Q R S T U V W X Y Z 0-9

Metal Gear Solid Skateboarding Theme Guitar Tabs – Konami

CD, Sheet music, Poster

Do you like Metal Gear Solid Skateboarding Theme? Share with your friends now
Tabs
I fix a few mistakes that i made on the previous one so heres the new one hope you 
guys like this one better enjoy! 



e|0-----0-----0----1-----1----1----0-----0-----0---------------------------|
B|--1-----1-----1----1-----1-----1---1-----1-----1---3--0---3--0----3------|
G|----2-----2----------2-----2---------0-----0------------0------0----0----|
D|-------------------------------------------------------------------------|
A|-------------------------------------------------------------------------|
E|-------------------------------------------------------------------------|

e|0-----0-----0----1-----1----1----0-----0-----0---------------------------|
B|--1-----1-----1----1-----1-----1---1-----1-----1-------------------------|
G|----2-----2----------2-----2---------0-----0-----------------------------|
D|----------------------------------------------------7--------------------|
A|----------------------------------------------------7--------------------|
E|----------------------------------------------------5--------------------|

e|-------------------------------------------------------------------------|
B|-------------------------------------------------------------------------|
G|-------------------------------------------------------------------------|
D|7--7--7--5--7-----7--10--10--9--9--7--5----5--7--7--7--5--7----7--10--10-|
A|-------------------------------------------------------------------------|
E|-------------------------------------------------------------------------|

e|-------------------------------------------------------------------------|
B|-------------------------------------------------------------------------|
G|-------------------------------------------------------------------------|
D|9--9--10--10--12-----7--7--7--5--7-----7--10--10--9--9--7--5-----5--7--7-|
A|-------------------------------------------------------------------------|
E|-------------------------------------------------------------------------|

e|-------------------------------------------------------------------------|
B|-----------------------------------------------------5--------------5----|
G|--------------------------------------------------------7--5-----7-------|
D|7--5--7------7--10-10--9--9--10--10--12--12--14------------------------7-|
A|-------------------------------------------------------------------------|
E|-------------------------------------------------------------------------|

e|-------------------5----------------------5--8-----7--8--10--8-----------|
B|5-------------5-------8--5-------------5------------------------10-------|
G|---7----5--7----------------5--7-----------------------------------------|
D|-------------------------------------------------------------------------|
A|-------------------------------------------------------------------------|
E|-------------------------------------------------------------------------|

e|-----7----8--7-----------------------------------------------------------|
B|8-10------------10--8--10-------7--------------7-----7---------------7---|
G|-----------------------------------9--7-----9-----------9------7--9------|
D|--------------------------------------------------9----------------------|
A|-------------------------------------------------------------------------|
E|-------------------------------------------------------------------------|

e|7---------------------7--10-------9--10--12--10-------------9---10--9--10|
B|---10--7------------7----------------------------12--10--12--------------|
G|----------7--9-----------------------------------------------------------|
D|-------------------------------------------------------------------------|
A|-------------------------------------------------------------------------|
E|-------------------------------------------------------------------------|

e|-------------------------------------------------------------------------|
B|12--10--12~--------------------------------------------------------------|
G|-------------------------------------------------------------------------|
D|----------------9--9--9--7---9---9--12--12--11--11--9--7--7--9--9--9--7--|
A|-------------------------------------------------------------------------|
E|-------------------------------------------------------------------------|

e|-------------------------------------------------------------------------|
B|-------------------------------------------------------------------------|
G|-------------------------------------------------------------------------|
D|9---9--12--12--11--11--12--14--9--9--9--7--9---9--12--12--11--11--9--7--7|
A|-------------------------------------------------------------------------|
E|-------------------------------------------------------------------------|

e|-------------------------------------------------------------------------|
B|-------------------------------------------------------------------------|
G|-------------------------------------------------------------------------|
D|9--9--9--7--9---9--12--12--11--11--12--14--------------------------------|
A|-------------------------------------------------------------------------|
E|-------------------------------------------------------------------------|

e|-------------------------------------------------------------------------|
B|-------------------------------------------------------------------------|
G|-------------------------------------------------------------------------|
D|-------------------------------------------------------------------------|
A|2--2--0--2--0--2--0--2--2--0--2--0--2--0--2--2--0--2--0--2--4--5--5---5-4|
E|--------------------------------------------------------------------3----|

e|-------------------------------------------------------------------------|
B|-------------------------------------------------------------------------|
G|-------------------------------------------------------------------------|
D|-------------------------------------------------------------------------|
A|2--2--0--2--0--2--0--2--2--0--2--0--2--0--2--2--0--2--0--2--4--5--5---5-4|
E|--------------------------------------------------------------------3----|


e|----7--5--3--2----7---10--9--7--6h7p6h7p6h7p6-------7--5--3--2--14-----12|
B|7-------------------7---------------------------7-------------------12---|
G|--4-----------------------------------------------4----------------------|
D|-------------------------------------------------------------------------|
A|-------------------------------------------------------------------------|
E|-------------------------------------------------------------------------|

e|10-----------------------2---2---2---2---2--5---5---5---5---5------------|
B|---14--12--11--12~~-------3---3---3---3--3---7---7---7---7--7------------|
G|---------------------------4---4---4-----4----7---7---7-----7------------|
D|-----------------------------------------0------------------0------------|
A|-------------------------------------------------------------------------|
E|-------------------------------------------------------------------------|

e|-------------------------------------------------------------------------|
B|7----------7---7----------7----------7---7--------7----------7---7-------|
G|--9--7---9-------9----------9--7---9-------9--------9--7---9-------9-----|
D|-------------7-------------------------7-----------------------7---------|
A|-------------------------------------------------------------------------|
E|-------------------------------------------------------------------------|

e|----7----------------10--9--10--12--10--------------9--------------------|
B|--7--10--7------------------------------12--10--12----12--10--12---------|
G|9-----------7--9---------------------------------------------------------|
D|-------------------------------------------------------------------------|
A|-------------------------------------------------------------------------|
E|-------------------------------------------------------------------------|

e|-------------------------------------------------------------------------|
B|7----------7---7---------------------------------------------------------|
G|--9--7---9-------9-------------------------------------------------------|
D|-------------7-----------------------------------------------------------|
A|-------------------------------------------------------------------------|
E|-------------------------------------------------------------------------|

e|----7-------------7--10--9--10--12--10--------------9--------------------|
B|--7--10--7------------------------------12--10--12----12--10--12---------|
G|9-----------7--9---------------------------------------------------------|
D|-------------------------------------------------------------------------|
A|-------------------------------------------------------------------------|
E|-------------------------------------------------------------------------|


e|-------------------------------------------------------------------------|
B|-------------------------------------------------------------------------|
G|-------------------------------------------------------------------------|
D|9--9--9--7---9---9--12--12--11--11--9--7--7--9--9--9--7--9---9--12--12---|
A|-------------------------------------------------------------------------|
E|-------------------------------------------------------------------------|

e|-------------------------------------------------------------------------|
B|-------------------------------------------------------------------------|
G|-------------------------------------------------------------------------|
D|11--11--12--12--14--9--9--9--7---9---9--12--12--11--11--9--7--7--9--9--9-|
A|-------------------------------------------------------------------------|
E|-------------------------------------------------------------------------|

e|-------------------------------------------------------------------------|
B|-------------------------------------------------------------------------|
G|-------------------------------------------------------------------------|
D|7--9---9--12--12--11--11--12--12--14-------------------------------------|
A|-------------------------------------------------------------------------|
E|-------------------------------------------------------------------------|

Solo:

e|17^----------------------------------------------------------------------|
B|17^--17^17--15-------------------9^--------------------------------------|
G|----------------16~--------7--9--9^--9--7--9--7-------------------7--9^9^|
D|---------------------9--9------------------------9-9-9-9-9--7--9---------|
A|-------------------------------------------------------------------------|
E|-------------------------------------------------------------------------|

e|-------------------------------------------------------------------------|
B|-------------------------------------------------------------------------|
G|9^9^9^--10--9--7-----------------------------7---------------------------|
D|------------------9--7-----------------7--9------------------------------|
A|------------------------9--7--5--7--9------------------------------------|
E|-------------------------------------------------------------------------|

e|-------------------------------------------------------------------------|
B|-------------------------------------------------------------------------|
G|-------------------------------------------------------------------------|
D|7--7--7--5--7--7--10--10--9--9--7--5---5--10--10--10--9--10--10--9--9/16\|
A|-------------------------------------------------------------------------|
E|-------------------------------------------------------------------------|

e|----------------------------------------17^---17^--17~~~~~---------------|
B|10--10--10--13--13--13--15--15--17--17--17^------------------------------|
G|9---9---9---12--12--12--14--14--16--16-----------------------------------|
D|-------------------------------------------------------------------------|
A|-------------------------------------------------------------------------|
E|-------------------------------------------------------------------------|

e|0-----0-----0----1-----1----1----0-----0-----0---------------------------|
B|--1-----1-----1----1-----1-----1---1-----1-----1---3--0---3--0----3------|
G|----2-----2----------2-----2---------0-----0------------0------0----0----|
D|-------------------------------------------------------------------------|
A|-------------------------------------------------------------------------|
E|-------------------------------------------------------------------------|

e|0-----0-----0----1-----1----1----0-----0-----0---------------------------|
B|--1-----1-----1----1-----1-----1---1-----1-----1-------------------------|
G|----2-----2----------2-----2---------0-----0-----------------------------|
D|-------------------------------------------------------------------------|
A|-------------------------------------------------------------------------|
E|-------------------------------------------------------------------------|





Comments


Popular Konami tabs & chords
Metal Gear Solid Theme Chords
Best Yet To Come Tabs
Metal Gear Solid 2 Team (Intro) Tabs
Metal Gear Solid 2 Theme Tabs
Metal Gear Solid 2 Theme 1 Tabs
Mgo Theme Tabs
Metal Gear Solid Theme Ukulele


Song lyrics



↑ Back to top | Tablatures and chords are parodies/interpretations of the original songs. You may use it for private study, scholarship, research or language learning purposes only
© 2014 AZChords.com Contact us | Privacy policy | DMCA | Add/correct tabs | Request tabs | Top 50 tabs