» » »

Song Of Time Bass tabs (ver.1)

Artists:  A B C D E F G H I J K L M N O P Q R S T U V W X Y Z # 

Song Of Time Bass tabs (ver.1)

Koji Kondo
Rating:
5/5 (3 votes)

Hard to play? Try these video lessons and learn fast.
                Transcribed the Song of Time (from OoT and MM) to bass from the guitar tab.

Part you play with the C buttons in-game:

G|-14----10-14----10-|
D|----12-------12----|
A|-------------------|
E|-------------------|

Full song 
(auto played part after you input the C button codes)
(also the Temple of Time theme in OoT)

G|-14----10-14----10--14-17-16-12-10-12-14-------------|
D|----12-------12--------------------------12-10-14-12-|
A|-----------------------------------------------------|
E|-----------------------------------------------------|

Enjoy.
            
Hard to play? Try these video lessons and learn fast. | Correct




comments powered by Disqus
↑ Back to top | Tablatures and chords are parodies/interpretations of the original songs. You may use it for private study, scholarship, research or language learning purposes only