» » »

Koji Kondo, Song Of Healing Tabs (ver.2)

Artists:  A B C D E F G H I J K L M N O P Q R S T U V W X Y Z # 

Song Of Healing Tabs (ver.2)

Koji Kondo Tabs
 Rating:
4.6/5 (10 votes)
Song Of Healing lessons Tabs too difficult? Try these video lessons and learn fast
                -------------------------------------------------------------------------------
                             Song Of Healing - Koji Kondo
-------------------------------------------------------------------------------

Composed by Koji Kondo


7/21/06

Tuning: Standard

e|---------------------------|
B|--0-------0-------0--------|
G|----2-------2-------2------|
D|------3-------3-------2-0-2|
A|---------------------------|
E|---------------------------| x2

e|---------------------------|
B|---------------------------|
G|---------------------------|
D|--3-------3-------3-2------|
A|----3-2-----3-2-------2-0-2|
E|---------------------------|

e|---------------------------|
B|----------------------0----|
G|------------------------0--|
D|--3-------3-------3-2------|
A|----3-2-----3-2------------|
E|---------------------------|

e|---------------------------|
B|--------3-3-3-------1------|
G|--2-2-2-------0-0-0---0----|
D|---------------------------|
A|---------------------------|
E|---------------------------|

e|---------------------------|
B|---------------------------|
G|--------3-3-3-----2--------|
D|--3-3-3-------2-0---2------|
A|---------------------------|
E|---------------------------|

e|---------------------------|
B|--------3-3-3-------1------|
G|--2-2-2-------0-0-0---0----|
D|---------------------------|
A|---------------------------|
E|---------------------------|

e|----------------------0----|
B|-----------1-3----0-3------|
G|----0-2--3------2----------|
D|--3------------------------|
A|---------------------------|
E|---------------------------|

That's it. Enjoy!
            
Submit corrections

comments powered by Disqus
↑ Back to top | Koji Kondo Tabs for Song Of Healing. Lyrics for acoustic guitar and electric guitar. Tablatures and chords are parodies/interpretations of the original songs. You may use it for private study, scholarship, research or language learning purposes only