» » »

Koji Kondo, Song Of Healing Tabs (ver.1)

Artists:  A B C D E F G H I J K L M N O P Q R S T U V W X Y Z # 

Song Of Healing Tabs (ver.1)

Koji Kondo Tabs
Rating:
4/5 (7 votes)
Song Of Healing lessons Tabs too difficult? Try these video lessons and learn fast
                Song of Healing

Originally By Koji Kondo (on Piano)


Forte:
e|-----|  
B|-----|  
G|-----|  
D|-----|  First, Hold this for 8 seconds aprox (on acoustic guitar),
A|--3--|  when the strings stop of sound, play the next:
E|--1--|  



e|--------------------------------------------------|
B|----0-----------0-----------0---------------------|
G|--------2-----------2-----------2-----------------|
D|------------3-----------3-----------2-0-2---------|  2 times
A|------3---3---3---3---3---3---3---3-------2-2-2---|
E|--------------------------------------------------|

e|--------------------------------------------------|
B|--------------------------------------------------|
G|--------------------------------------------------|
D|--3-----------3-----------3---2-------------------|
A|------3---2-------3---2-----------2-0-2-----------|
E|----1---1---1---1---1---1---0---0-------0-0-0-----|

e|--------------------------------------------------|
B|----------------------------------0---------------|
G|--------------------------------------0-----------|
D|--3-----------3-----------3---2-----2-------------|
A|------3---2-------3---2---------------------------|
E|----1---1---1---1---1---1---0---0-----------------|

e|--------------------------------------------------|
B|--------------3---3---3---------------1-----------|
G|--2---2---2-----2---2---2-0---0---0-------0-------|
D|----3---3---3---------------2---2---2---2---------|
A|--------------------------------------------------|
E|--------------------------------------------------|

e|--------------------------------------------------|
B|--------------------------------------------------|
G|--------------3---3---3-----------2---------------|
D|--3---3---3-----3---3---3-2---0-------2-----------|
A|----5---5---5---------------3---3---3-------------|
E|--------------------------------------------------|

e|--------------------------------------------------|
B|--------------3---3---3---------------1-----------|
G|--2---2---2-----2---2---2-0---0---0-------0-------|
D|----3---3---3---------------2---2---2---2---------|
A|--------------------------------------------------|
E|--------------------------------------------------|

e|--------------------------------------0----|
B|--------------0---1---3-------0---3--------|
G|------0---2---------------2----------------|
D|--3-------------3---3---3---3---3---3---2--|
A|----3---3---3------------------------------|
E|-------------------------------------------|

That's all, it isn't difficult, thanks to all! 
Gute Nacht
(Saludos para mis amigos!!!)¬¬
            
Submit corrections

comments powered by Disqus
↑ Back to top | Koji Kondo Tabs for Song Of Healing. Lyrics for acoustic guitar and electric guitar. Tablatures and chords are parodies/interpretations of the original songs. You may use it for private study, scholarship, research or language learning purposes only