» » »

Koji Kondo, Ocarina Of Time Tabs (ver.1)

Artists:  A B C D E F G H I J K L M N O P Q R S T U V W X Y Z # 

Ocarina Of Time Tabs (ver.1)

Koji Kondo Tabs
 Rating:
4/5 (12 votes)
Ocarina Of Time lessons Tabs too difficult? Try these video lessons and learn fast
1
                -------------------------------------------------------------------------------
                             Ocarina of Time Intro - Koji Kondo
-------------------------------------------------------------------------------

Tuning: Standard

Pretty simple, cool guitar tab. It should be pretty much accurate. I couldn't find an 
tab of this so I decided to make one.
The speed is definitely off, and it's probably a lot easier if you know the song
or you can listen to it while learning. Hope you like it.


e|-------------------------------5--3------------------------------|
B|--0--3------------0--3----0--3------3--1--0----------------------|
G|---------2--0--2--------2-------------------2--------------------|
D|-----------------------------------------------------------------|
A|-----------------------------------------------------------------|
E|-----------------------------------------------------------------|

e|---------------------------------5--3--10---------------------|
B|--0--3-------------0--3----0--3-------------------------------|
G|---------2--0--2--------2-------------------------------------|
D|--------------------------------------------------------------|
A|--------------------------------------------------------------|
E|--------------------------------------------------------------|

e|-10-8-7-8-7------8-7-5-7-5-0------10-8-7-8-7----8-13----------|
B|-----------8--------------------------------8-----------------|
G|--------------------------------------------------------------|
D|--------------------------------------------------------------|
A|--------------------------------------------------------------|
E|--------------------------------------------------------------|
            
Submit corrections

comments powered by Disqus
↑ Back to top | Koji Kondo Tabs for Ocarina Of Time. Lyrics for acoustic guitar and electric guitar. 1 Tablatures and chords are parodies/interpretations of the original songs. You may use it for private study, scholarship, research or language learning purposes only