» » »

Oath To Order Tabs (ver.1)

Artists:  A B C D E F G H I J K L M N O P Q R S T U V W X Y Z # 

Oath To Order Tabs (ver.1)

Koji Kondo
Rating:
0/5 (0 votes)

Hard to play? Try these video lessons and learn fast.
                (Intro)

                             Oath to Order



The Legend of Zelda  Majora's Mask

Tuning: Standard

e||--------------------------------|--5------------5--10------------|
B||------------------3-------------|------6--3--6-------------------|
G||--2------------2----------------|--------------------------------|
D||------3--0--3-------------------|--------------------------------|
A||--------------------------------|--------------------------------|
E||--------------------------------|--------------------------------|

e||--------------------------------|
B||--------------------------------|
G||--0--2--0-----------------------|
D||--------------------------------|
A||--------------------------------|
E||--------------------------------|
            
Hard to play? Try these video lessons and learn fast. | Correct




comments powered by Disqus
↑ Back to top | Tablatures and chords are parodies/interpretations of the original songs. You may use it for private study, scholarship, research or language learning purposes only