» » »

Koji Kondo, Lon Lon Ranch Tabs (ver.1)

Artists:  A B C D E F G H I J K L M N O P Q R S T U V W X Y Z # 

Lon Lon Ranch Tabs (ver.1)

Koji Kondo Tabs
Rating:
4/5 (2 votes)
Lon Lon Ranch lessons Tabs too difficult? Try these video lessons and learn fast
                E|10--------10------|
B|---12-10-----12-10|
G|------------------|
D|------------------|
A|------------------|
D|------------------|

E|10----------------|
B|---12-10-12-10----|
G|------------------|
D|------------------|
A|------------------|
D|------------------|

E|--------9-10------|
B|-8-7-11------12---|
G|------------------|
D|------------------|
A|------------------|
D|------------------|

E|10-10-10-9--------|
B|-----------12-10--|
G|------------------|
D|------------------|
A|------------------|
D|------------------|

E|10--------10------|
B|---12-10-----12-10|
G|------------------|
D|------------------|
A|------------------|
D|------------------|

E|10----------------|
B|---12-10-12-10----|
G|------------------|
D|------------------|
A|------------------|
D|------------------|

E|----------9--10---|
B|-8-7-11-12--------|
G|------------------|
D|------------------|
A|------------------|
D|------------------|

E|-10---12--10------|
B|------------------|
G|------------------|
D|------------------|
A|------------------|
D|------------------|

E|--------------------|
B|11-11-11-11-13-11-11|
G|--------------------|
D|--------------------|
A|--------------------|
D|--------------------|

E|------------------|
B|10-10-13s6--------|         s= slide
G|------------------|
D|------------------|
A|------------------|
D|------------------|



E|------------------|
B|8-8-8-8--10-11-10-|
G|------------------|
D|------------------|
A|------------------|
D|------------------|

E|--------------------|
B|11-11-11-11-13-11-11|
G|--------------------|
D|--------------------|
A|--------------------|
D|--------------------|

E|------------------|
B|10-10-13s6--------|         s= slide
G|------------------|
D|------------------|
A|------------------|
D|------------------|


E|------------------|
B|8-8-8-8--10-11-10-|
G|------------------|
D|------------------|
A|------------------|
D|------------------|



Then you repeat the entire song. This is probably the most simple tab ever.
            

comments powered by Disqus
↑ Back to top | Koji Kondo Tabs for Lon Lon Ranch. Lyrics for acoustic guitar and electric guitar. Tablatures and chords are parodies/interpretations of the original songs. You may use it for private study, scholarship, research or language learning purposes only