» » »

Legend Of Zelda - Lost Woods Bass tabs (ver.1)

Artists:  A B C D E F G H I J K L M N O P Q R S T U V W X Y Z # 

Legend Of Zelda - Lost Woods Bass tabs (ver.1)

Koji Kondo
Rating:
4/5 (2 votes)

Hard to play? Try these video lessons and learn fast.
                ----------------------------------------------------------------------------
			     Lost Woods - Legend Of Zelda (Koji Kondo)
----------------------------------------------------------------------------


Tuning: Standard

Finally inished the whole song this plays really well I find

G:|------------------------------21--19----------------------------------|
D:|-----19-21----19--21----19-21---------21-22-21------------------------|
A:|-20--------20--------20-------------------------22--19-----19--22--19-|
E:|--------------------------------------------------------22------------|

G:|--------------------------------21--19-------21-----------------------|
D:|-----19--21-----19-21----19--21--------21-22----22-------22-----------|
A:|-20----------20-------20---------------------------22-------22----19--|
E:|---------------------------------------------------------------22-----|

G:|--------------------------------------------------------------19-21--|
D:|--------------19-21---22-21-------------------------19-21---22-------|
A:|----19-20--22---------------19------------19-20--22------------------|
E:|-22------------------------------22----------------------------------|

G:|-------------------------------------|
D:|--------------19-21---22-21----------|
A:|----19-20--22--------------19--------|
E:|-22----------------------------------|

G:|---------------------------------------19----21h22-19--21----|
D:|---------------------19----21-19-22-21---22------------------|
A:|-19-----20-19-22-20----22------------------------------------|
E:|-----22------------------------------------------------------|

G:|------------------------------21--19----------------------------------|
D:|-----19-21----19--21----19-21---------21-22-21------------------------|
A:|-20--------20--------20-------------------------22--19-----19--22--19-|
E:|--------------------------------------------------------22------------|


| /  slide up
| \  slide down
| h  hammer-on
| p  pull-off
| ~  vibrato
| +  harmonic
| x  Mute note
============================================================================
            
Hard to play? Try these video lessons and learn fast. | Correct




comments powered by Disqus
↑ Back to top | Tablatures and chords are parodies/interpretations of the original songs. You may use it for private study, scholarship, research or language learning purposes only