» » »

Koji Kondo, Heal Song Tabs (ver.1)

Artists:  A B C D E F G H I J K L M N O P Q R S T U V W X Y Z # 

Heal Song Tabs (ver.1)

Koji Kondo Tabs
 Rating:
4/5 (4 votes)
Heal Song lessons Tabs too difficult? Try these video lessons and learn fast
1
                ea no ps primera cancion ke subo jeje ps esta me gusta mucho
espero y les guste a ustedes tambien
sale pues aki les dejo la tablatura
saludos

1st guitar

E|--------------------------------------------------|
B|----0-----------0-----------0---------------------|
G|--------2-----------2-----------2-----------------|     x2
D|------------3-----------3-----------2-0-2---------|  
A|--------------------------------------------------|
E|--------------------------------------------------|
 
   
E|--------------------------------------------------|
B|--------------------------------------------------|
G|--------------------------------------------------|
D|---3---------3--------3--2------------------------|  
A|------3--2------3--2--------2--0--2---------------|
E|--------------------------------------------------|

E|--------------------------------------------------|
B|----------------------------0---------------------|
G|-------------------------------0------------------|
D|---3---------3--------3--2------------------------|  
A|------3--2------3--2------------------------------|
E|--------------------------------------------------|

E|--------------------------------------------------|
B|------------3--3--3-----------1-------------------|
G|---2--2--2-----------0--0--0-----0----------------|
D|--------------------------------------------------|  
A|--------------------------------------------------|
E|--------------------------------------------------|

E|--------------------------------------------------|
B|--------------------------------------------------|
G|------------3--3--3--------2----------------------|
D|---3--3--3-----------2--0-----2-------------------|  
A|--------------------------------------------------|
E|--------------------------------------------------|

E|--------------------------------------------------|
B|------------3--3--3-----------1-------------------|
G|---2--2--2-----------0--0--0-----0----------------|
D|--------------------------------------------------|  
A|--------------------------------------------------|
E|--------------------------------------------------|

E|------------------------------0-------------------|
B|------------0--1--3-----0--3----------------------|
G|------0--2-----------2----------------------------|
D|---3----------------------------------------------|  
A|--------------------------------------------------|
E|--------------------------------------------------|

2nd guitar

E|---7----------7----------7------------------------|
B|------10---------10---------10--------------------|
G|----------10---------10---------9--7--9-----------| x 2
D|--------------------------------------------------|  
A|--------------------------------------------------|
E|--------------------------------------------------|

E|--------------------------------------------------|
B|--------------------------------------------------|
G|---10---------10---------10--9--------------------|
D|-------10--9------10--9---------9--7--9-----------|  
A|--------------------------------------------------|
E|--------------------------------------------------|

E|--------------------------------------------------|
B|--------------------------------12----------------|
G|---10---------10---------10--9------12------------|
D|-------10--9------10--9---------------------------|  
A|--------------------------------------------------|
E|--------------------------------------------------|

E|---------------10--10--10-----------8-------------|
B|---10--10--10--------------8--8--8-----8----------|
G|--------------------------------------------------|
D|--------------------------------------------------|  
A|--------------------------------------------------|
E|--------------------------------------------------|

E|--------------------------------------------------|
B|---------------11--11--11-----------10------------|
G|---10--10--10--------------9--9--9------9---------|
D|--------------------------------------------------|  
A|--------------------------------------------------|
E|--------------------------------------------------|

E|---------------11--11--11-----------8-------------|
B|---10--10--10--------------8--8--8-----8----------|
G|--------------------------------------------------|
D|--------------------------------------------------|  
A|--------------------------------------------------|
E|--------------------------------------------------|

E|--------------7--8--10------7--10--12-------------|
B|-------8--10------------10------------------------|
G|---10---------------------------------------------|
D|--------------------------------------------------|  
A|--------------------------------------------------|
E|--------------------------------------------------|

eso es todo lo que sake jej espero ke les guste
            
Submit corrections

comments powered by Disqus
↑ Back to top | Koji Kondo Tabs for Heal Song. Lyrics for acoustic guitar and electric guitar. 1 Tablatures and chords are parodies/interpretations of the original songs. You may use it for private study, scholarship, research or language learning purposes only