>
 >
Dire Dire Docks

Dire Dire Docks Guitar Tabs

Koji Kondo - Dire Dire Docks chords, tabs, tablatures, lyrics

Guitar lessons | Add/correct | Request | Top 50 tabs Artists:  A B C D E F G H I J K L M N O P Q R S T U V W X Y Z 0-9

Dire Dire Docks Guitar Tabs – Koji Kondo

CD, Sheet music, Poster

Do you like Dire Dire Docks? Share with your friends now
Tabs
Water Theme
Super Mario 64
Composed by Koji Kondo

Guitar
      E  E  E  Q    Q    E     E  E  E  Q.     Q       E  E  E  Q    Q    E
E ||--7---------------------|--3--------3-----------|------------------------|
B ||----------------0----3--|-----------3------3----|--1-------------0----3--|
G ||--------0---------------|--------0--------------|-----------2------------|
D ||-----0-----7------------|-----0-----------------|--------3---------------|
A ||------------------------|-----------------------|-----3------------------|
D
||--4---------------------|--4--------------------|--2---------------------|

  E  E  E  Q.     Q       E  E  E  Q    Q    E     E  E  E  Q    E  E  E
--3--------3------3----|------------------------|--3--------3-------------|
-----------1-----------|--3-------------0----3--|-----------3-------------|
-----------------------|--------0--2------------|--------0-------4--2--0--|
--------3--------------|-----0------------------|-----0-------------------|
-----3-----------------|------------------------|-------------------------|
--2--------------------|--4---------------------|--4----------------------|

  E  E  E  Q    Q    E     E  E  E  Q.     Q       E  E  E  Q    Q    E
------------------------|-----------3-----------|------------------------|
----------------0----3--|-----------1-----------|--3------------------3--|
--0--------2------------|-----------------------|-----------2----3-------|
--------3---------------|--3-----3---------3----|--------1---------------|
-----3------------------|-----3-----------------|-----1------------------|
--2---------------------|--2--------------------|--0---------------------|

  E  E  E  Q    Q.        E  E  E  Q    Q    E     E  E  E  Q.     Q
-----------3-----------|------------------------|-----------------------|
-----------3-----------|--1-------------0----3--|--3--------------------|
--3-------------0------|-----------2------------|-----------2-----------|
--------1--------------|--------3---------------|--------3---------0----|
-----1-----------------|-----3------------------|-----3-----------------|
--0--------------------|--2---------------------|--2--------------------|

    E  E  E  E  E  E  E  E     Q    Q    Q    Q       E  E  E  Q.     E  E
|---------3--5--7--8--7--5--|--3--------------3----|------------------------|
|------3--------------------|-------3----1---------|--3---------------------|
|*--4-----0-----------0-----|----------------------|-----------0---------0--|
|*-----0-----------------0--|-------3--------------|--------1---------1-----|
|---------------------------|----------------------|-----1------------------|
|---4-----------------------|--2-------------------|--0---------------------|

  E  E  Q.     E  E  E     E  E  E  H        E     E  E  E  Q    Q.
------------------------|--------3--------------|----------------3-------||
---------------1-----1--|--0--3-----------------|-----------3------------||
------------------------|--------0--0--------0--|--------0--------------*||
--------3---------3-----|-----0-----------------|-----0-----------------*||
-----3------------------|-----------------------|------------------------||
--2---------------------|--4--------------------|--4---------------------||

  E  E  E  E  E  E  E  E     E  E  E  Q    E  Q       E  E  E  E  E  E  E  E
--------------0--------0--|------------------------|--------------------------|
--------1--------3--1-----|--3---------------------|--------------3--1--0--1--|
-----0-----0--------------|-----0-----0-------0----|-----2-----0--------------|
--------------------------|--------0-------0-------|--------2-----------------|
--3-----------------------|--2---------------------|--0-----------------------|
--------------------------|------------------------|--------------------------|

  E  E  E  Q.     Q       E  E  E  E  E  E  E  E     E  E  E  Q.     Q
-----------------------|--------------0--------0--|-----------------------|
--0--------------------|--------1--------3--1-----|--3--------------------|
-----0-----0-----------|-----0-----0--------------|-----0-----0-----------|
--------0--------------|--------------------------|--------0--------------|
------------------2----|--3-----------------------|--2---------------2----|
--4--------------------|--------------------------|-----------------------|

  E  E  Q    E  E  E  E     E  E  Q    E  Q.          E  E  E  E  E  E  E  E
-------------------------|--------3----0---------||---------3--5--7--8--7--5--|
-------------1--3--1--0--|----------------3------||------3--------------------|
--------3----------------|--------2-------2------||*--------0-----------0-----|
-----3-------------------|-----2-------0---------||*-----0-----------------0--|
--1----------------1-----|--0--------------------||---------------------------|
-------------------------|-----------------------||---4-----------------------|

  Q    Q    Q    Q       E  E  E  Q.     E  E     E  E  Q.     E  E  E
--3--------------3----|------------------------|------------------------|
-------3----1---------|--3---------------------|---------------1-----1--|
----------------------|-----------0---------0--|------------------------|
-------3--------------|--------1---------1-----|--------3---------3-----|
----------------------|-----1------------------|-----3------------------|
--2-------------------|--0---------------------|--2---------------------|

  E  E  E  H        E     E  E  E  Q    Q.          E  E  E  Q    Q    E
--------3--------------|----------------3-------||-----------1----1----1--|
--0--3-----------------|-----------3------------||-----------1----1----1--|
--------0--0--------0--|--------0--------------*||------------------------|
-----0-----------------|-----0-----------------*||--------3---------------|
-----------------------|------------------------||-----3------------------|
--4--------------------|--4---------------------||--2---------------------|

  E  E  E  E  E  E  E  E     E  E  E  Q    Q    E     E  E  E  E  E  E  E  E
-----1--1--1-----1--1--1--|-----------3----3----3--|-----3--3--3-----3--3--3--|
-----1--1--1-----1--1--1--|-----------3----3----3--|-----3--3--3-----3--3--3--|
-----2--2--2-----2--2--2--|-----------3----3----3--|-----3--3--3-----3--3--3--|
--------------------3--3--|--------1---------------|-----1--1--1-----1--1--1--|
--------------3-----------|-----1------------------|--------------1-----------|
--2-----------------------|--0---------------------|--0-----------------------|

  E  E  E  Q    Q    E     E  Q    Q    Q.
-----------3----3----3--|-----3----3----5-------||
--------3--3----3----3--|-----1----1----7-------||
-----2-----2----2----2--|-----2----2----5------*||
--0---------------------|--0------------0------*||
------------------------|-----------------------||
------------------------|-----------------------||

Duration Legend
---------------
W - whole
H - half
Q - quarter
E - 8th
S - 16th
T - 32nd
X - 64th
. - note dotted
|-n-|  - n-tuplets





Comments


Popular Koji Kondo tabs & chords
Legend Of Zelda - Lost Woods Bass Tabs
Song Of Time Bass Tabs
Ballad Of The Goddess Tabs
Farewell Hyrule King Tabs
Garudo Valley Zelda Tabs
Heal Song Tabs
Kakariko Village 2 Tabs
Minuet Of Forest Tabs
Minuet Of Forest 1 Tabs
Prelude Of Time Tabs


Song lyrics



↑ Back to top | Tablatures and chords are parodies/interpretations of the original songs. You may use it for private study, scholarship, research or language learning purposes only
© 2014 AZChords.com Contact us | Privacy policy | DMCA | Add/correct tabs | Request tabs | Top 50 tabs