» » »

Clock Town Tabs (ver.1)

Artists:  A B C D E F G H I J K L M N O P Q R S T U V W X Y Z # 

Clock Town Tabs (ver.1)

Koji Kondo
Rating:
5/5 (2 votes)

Hard to play? Try these video lessons and learn fast.
                (Theme)
E|---10-9-7----7----------------------------10-9-7----7----------------|
B|----------10---8--10---10-8----8-10-7------------10---8-10-8---8-7---|
G|-7-------------------9------9-----------7--------------------9-----7-|
D|---------------------------------------------------------------------|
A|---------------------------------------------------------------------|
E|---------------------------------------------------------------------|


E|---10-9-7----7----------------------------10-9-7----7----------------|
B|----------10---8--10---10-8----8-10-7------------10---8-10-8---8-7---|
G|-7-------------------9------9-----------7--------------------9-----7-|
D|---------------------------------------------------------------------|
A|---------------------------------------------------------------------|
E|---------------------------------------------------------------------|

E|--------------------------------------------------------------|
B|------------5----8-7-8-7---5------------------5---8-7-8-7-----|
G|-7--7-7-6-7--------------7---6-----7--7-7-6-7-------------6-7-|
D|--------------7----------------7----------------7-------------|
A|--------------------------------------------------------------|
E|--------------------------------------------------------------|

E|----------------------------|------------------------|
B|-8--7--------8--7-----------|-8--7--10--8---8--7--6--|
G|-------9--7--------9--7--6--|------------------------|
D|----------------------------|------------------------|
A|----------------------------|------------------------|
E|----------------------------|------------------------|
            
Hard to play? Try these video lessons and learn fast. | Correct




comments powered by Disqus
↑ Back to top | Tablatures and chords are parodies/interpretations of the original songs. You may use it for private study, scholarship, research or language learning purposes only