» » »

Liebeslied Tabs (ver.2)

Artists:  A B C D E F G H I J K L M N O P Q R S T U V W X Y Z # 

Liebeslied Tabs (ver.2)

Knorkator
Rating:
0/5 (0 votes)

Hard to play? Try these video lessons and learn fast.
                
Knorkator - Liebeslied

Tuning: Standard (E A D G B E)

~ = Vibrato
s = Slide


 [Intro]
 E|-------7-9--------------7-9---------------------------------------|
 B|---7-9-----5-7s9~---7-9-----5-------------------------------------|
 G|------------------------------8-6~s4------------------------------|   x2
 D|------------------------------------------------------------------|
 A|------------------------------------------------------------------|
 E|------------------------------------------------------------------|


 [Verse] 
 E|------------------------------------------------------------------|
 B|---5-7-7s9~---9-7-5~---5-7s9-7~-----------------------------------|
 G|------------------------------------------------------------------|   x2
 D|------------------------------------------------------------------|
 A|------------------------------------------------------------------|
 E|------------------------------------------------------------------|

 E|-------7-9--------------7-9---------------------------------------|
 B|---7-9-----5-7s9~---7-9-----5-------------------------------------|
 G|------------------------------8-6~s4------------------------------|   x2
 D|------------------------------------------------------------------|
 A|------------------------------------------------------------------|
 E|------------------------------------------------------------------|


 [Chorus]
 E|--12-11-9-----7-9-----12-11-9-----7-------------------------------|
 B|----------9-7-----5~----------9-7---5~----------------------------|
 G|------------------------------------------------------------------|
 D|------------------------------------------------------------------|
 A|------------------------------------------------------------------|
 E|------------------------------------------------------------------|

 E|--12-11-9-----7-9-------------------------------------------------|
 B|----------9-7-----5~--5-7s9-10-9-7~-------------------------------|
 G|--------------------------------------6-8s9-9-8-6~----------------|
 D|------------------------------------------------------------------|
 A|------------------------------------------------------------------|
 E|------------------------------------------------------------------|


 [Intro]


 [Verse]


 [Chorus]


 [Outro]
 E|--------9-11----------------9-11----------------------------------|
 B|---9-11------7-9s11~---9-11------7--------------------------------|
 G|-----------------------------------10-8~s6------------------------|   x2
 D|------------------------------------------------------------------|
 A|------------------------------------------------------------------|
 E|------------------------------------------------------------------|

 E|--14-13-11------9-11-----14-13-11------9--------------------------|
 B|-----------11-9------7~-----------11-9---7~-----------------------|
 G|------------------------------------------------------------------|
 D|------------------------------------------------------------------|
 A|------------------------------------------------------------------|
 E|------------------------------------------------------------------|

 E|--14-13-11------9-11----------------------------------------------|
 B|-----------11-9------7~--7-9s11-12-11-9~--------------------------|
 G|-----------------------------------------8-10s11-11-10-8~---------|
 D|------------------------------------------------------------------|
 A|------------------------------------------------------------------|
 E|------------------------------------------------------------------|
            
Hard to play? Try these video lessons and learn fast. | Correct




comments powered by Disqus
↑ Back to top | Tablatures and chords are parodies/interpretations of the original songs. You may use it for private study, scholarship, research or language learning purposes only