» » »

Knorkator, Liebeslied Tabs (ver.1)

Artists:  A B C D E F G H I J K L M N O P Q R S T U V W X Y Z # 

Liebeslied Tabs (ver.1)

Knorkator Tabs
 Rating:
4/5 (4 votes)
Liebeslied lessons Tabs too difficult? Try these video lessons and learn fast
1
                ----------------------------------------------------------------------------
                    Liebeslied (Lead Guitar) - Knorkator
----------------------------------------------------------------------------


Tuning: Standard (eBGDAE)

INTRO
2x
e|-------7-9---------------7-9---------------------------------------|
B|---7-9-----5-7-7/9~--7-9-----5-------------------------------------|
G|-------------------------------8-6~-6\4-4~-------------------------|
D|-------------------------------------------------------------------|
A|-------------------------------------------------------------------|
E|-------------------------------------------------------------------|


VERSE
2x
e|-------------------------------------------------------------------|
B|---5-7-7-7/9-9-7-5~--5-7-7/9-7~------------------------------------|
G|-------------------------------------------------------------------|
D|-------------------------------------------------------------------|
A|-------------------------------------------------------------------|
E|-------------------------------------------------------------------|

        
PRE CHORUS
2x
e|-------7-9---------------7-9---------------------------------------|
B|---7-9-----5-7-7/9~--7-9-----5-------------------------------------|
G|-------------------------------8-6~-6\4-4~-------------------------|
D|-------------------------------------------------------------------|
A|-------------------------------------------------------------------|
E|-------------------------------------------------------------------|


CHORUS
e|---12-11-9-------7-9-----12-11-9-------7---------------------------|
B|-----------9\7-7-----5~----------9\7-7---5~------------------------|
G|-------------------------------------------------------------------|
D|-------------------------------------------------------------------|
A|-------------------------------------------------------------------|
E|-------------------------------------------------------------------|

e|---12-11-9-------7-9-----------------------------------------------|
B|-----------9\7-7-----5~--5-7-7/9-10-9-7~---------------------------|
G|-----------------------------------------6-8-8/9-9-8-6~------------|
D|-------------------------------------------------------------------|
A|-------------------------------------------------------------------|
E|-------------------------------------------------------------------|


INTRO


VERSE


PR CHORUS


CHORUS


OUTRO
2x
e|--------9-11-----------------9-11----------------------------------|
B|---9-11------7-9-9/11~--9-11------7--------------------------------|
G|------------------------------------10-8~-8\6-6~-------------------|
D|-------------------------------------------------------------------|
A|-------------------------------------------------------------------|
E|-------------------------------------------------------------------|


e|---14-13-11--------9-11-----14-13-11--------9----------------------|
B|------------11\9-9------7~-----------11\9-9---7~-------------------|
G|-------------------------------------------------------------------|
D|-------------------------------------------------------------------|
A|-------------------------------------------------------------------|
E|-------------------------------------------------------------------|

e|---14-13-11--------9-11--------------------------------------------|
B|------------11\9-9------7~--7-9-9/11-12-11-9~----------------------|
G|----------------------------------------------8-10-10/11-11-10-8~--|
D|-------------------------------------------------------------------|
A|-------------------------------------------------------------------|
E|-------------------------------------------------------------------|



************************************

| /   slide up
| \   slide down
| h   hammer-on
| p   pull-off
| ~   vibrato
| +   harmonic
| x   Mute note
| b   Bend
| pb  Pre-bend
| br  Bend release
| pbr Pre-bend release
| brb Bend release bend

************************************
            
Submit corrections

comments powered by Disqus
↑ Back to top | Knorkator Tabs for Liebeslied. Lyrics for acoustic guitar and electric guitar. 1 Tablatures and chords are parodies/interpretations of the original songs. You may use it for private study, scholarship, research or language learning purposes only