» » »

Knorkator, Ich Hasse Musik Tabs (ver.1)

Artists:  A B C D E F G H I J K L M N O P Q R S T U V W X Y Z # 

Ich Hasse Musik Tabs (ver.1)

Knorkator Tabs
Rating:
5/5 (1 vote)
Ich Hasse Musik lessons Tabs too difficult? Try these video lessons and learn fast
                Knorkator - Ich hasse Musik

Intro:

e|-----------------------|
a|-----------------------|
d|-----------------------|
g|-----0h1p0--1p0--------|
h|0h2h3----------h3-2p0-0|
E|-----------------------|

e|-----------------------|
a|-----------------------|
d|-----------------------|
g|-----0h1p0--1p0--------|
h|0h2h3----------h3-2p0-2|
E|-----------------------|

Verse:

e|-----------------------|
a|-----------------------|
d|-2-2-------------------|
g|-2-2---------0 0h1p0---|
h|-0-0-3~--0-3---------3-|
E|-----------------------|

e|----------|-----------|       -------------|
a|----------|--6--6-----|       -6--7--8-----|
d|----------|--5--5-----|       -5--6--7-----|
g|----------|--4--4-----|       -4--5--6-----|
h|----------|--5--5-----|.......-5--6--7-----|
E|5-4-3-2---|-----------|       -------------|
            

comments powered by Disqus
↑ Back to top | Knorkator Tabs for Ich Hasse Musik. Lyrics for acoustic guitar and electric guitar. Tablatures and chords are parodies/interpretations of the original songs. You may use it for private study, scholarship, research or language learning purposes only