» » »

Knapp Jennifer, Romans Bass tabs (ver.1)

Artists:  A B C D E F G H I J K L M N O P Q R S T U V W X Y Z # 

Romans Bass tabs (ver.1)

Knapp Jennifer Tabs
 Rating:
4/5 (4 votes)
Romans lessons Tabs too difficult? Try these video lessons and learn fast
                /   - slide up
t    - trill
x   - muted note

Corrections/Comments welcome - This follows the cd directly, so print it out, 
and label it if you need to.This is about 95% accurate, and my thinking is 
that a good bass player should have no problems filling in the other 5%

 


-|---------------|-----------------|---------------|-----------------|
-|---------------|-----------------|---------------|-----------------|
-|--------2-x-2--|--4-4-x-6-x-2--2-|--------2-x-2--|--4-4-x-6-x-2--2-|
-|--2-2-x--------|-----------------|--2-2-x--------|-----------------|
                                                                           


-|--------------|-----------------|---------------|------------------|
-|--------------|-----------------|---------------|------------------|
-|-------2-x-2--|--4-4-x-6-x-2--2-|--------2-x-2--|----4-4--2--------|
-|-2-2-x--------|-----------------|--2-2-x--------|------------------|
                                                                              


-|--------------|-----------------|---------------|------------------|
-|--------------|-----------------|---------------|------------------|
-|-------2-x-2--|--4-4-x-6-x-2--2-|--------2-x-2--|--4-4-x-6-x-2--2--|
-|-2-2-x--------|-----------------|--2-2-x--------|------------------|
                                                                              


-|--------------|-----------------|---------------|------------------|
-|--------------|-----------------|---------------|------------------|
-|-------2-x-2--|--4-4-x-6-x-2--2-|--------2-x-2--|----4-4--4--------|
-|-2-2-x--------|-----------------|--2-2-x--------|------------------|
                                                   


-|--------------|-----------------|---------------|------------------|
-|--------------|-----------------|---------------|------------------|
-|-2---2-2-2----|--6---8-9--------|-4---4-4-4-----|-2---2-2-2--------|
-|--------------|-----------------|---------------|------------------|
                                                                         


-|--------------|-----------------|---------------|------------------|
-|--------------|-----------------|---------------|------------------|
-|--6--8-9------|-4---4-4-4-------|-2-------------|-4----------------|
-|--------------|-----------------|---------------|------------------|
 


-|--------------|-----------------|--------------|-------------------|
-|--------------|-----------------|--------------|-------------------|
-|-------2-x-2--|-2/4--2/4-x6-x2--|-------2-x-2--|-2---4-4/16t-------|
-|-2-2-x--------|-----------------|-2-2-x--------|-------------------|
 


-|--------------|-----------------|--------------|-------------------|
-|--------------|-----------------|--------------|-------------------|
-|--------2-x-2-|-4-4-x-6-x-2--2--|--------2-x-2-|-4-4-x-6-x-2--2----|
-|--2-2-x-------|-----------------|--2-2-x-------|-------------------|
                                                                              


-|--------------|-----------------|--------------|-------------------|
-|--------------|-----------------|--------------|-------------------|
-|--------2-x-2-|-4-4-x-6-x-2--2--|-------2-x-2--|----4-4-2----------|
-|--2-2-x-------|-----------------|-2-2-x--------|-------------------|
                                                                              


-|--------------|-----------------|--------------|-------------------|
-|--------------|---------9-9-8---|--------------|----------9-9-8----|
-|--------2-x-2-|-4-4-x-6---------|-9\----2-x-2--|--4-4-x-6----------|
-|--2-2-x-------|-----------------|---2-x--------|-------------------|
                                                                              


-|--------------|-----------------|--------------|-------------------|
-|--------------|---------9-9-8---|--------------|-------------------|
-|-9\----2-x-2--|-4-4-x-6---------|-9\-----2-x-2-|--4-4-2------------|
-|---2-x--------|-----------------|----2-x-------|-------------------|
                                                                              


-|--------------|-----------------|--------------|-------------------|
-|--------------|-----------------|--------------|-------------------|
-|-------2-x-2--|--4-4-x-6-x-2-2--|-------2-x-2--|--4-4-x-6-x-2-2----|
-|-2-2-x--------|-----------------|-2-2-x--------|-------------------|
                                                                              


-|--------------|-----------------|--------------|-------------------|
-|--------------|-----------------|--------------|---6---------------|
-|-------2-x-2--|--4-4-x-6-x-2-2--|-------2-x-2--|-----6-------------|
-|-2-2-x--------|-----------------|-2-2-x--------|-------4-----------|
                                                                              


-|--------------|-----------------|--------------|-------------------|
-|--------------|-----------------|--------------|-------------------|
-|--2---2-2-2---|-6----8--9-------|-4---4-4-4----|--2---2-2-2--------|
-|--------------|-----------------|--------------|-------------------|
                                                                              


-|--------------|-----------------|--------------|-------------------|
-|--------------|-----------------|-9--8----6----|-------------------|
-|-6----8--9----|-4---4--4------4/|--------------|-4-4-4-4-4-4-4-4---|
-|--------------|-----------------|--------------|-------------------|
                                                                              


-|--------------|-----------------|--------------|-------------------|
-|--------------|-----------------|--------------|-------------------|
-|-2----2-2-2---|---6-6-6-4-------|-2---2-2-2----|---6-4--/16--------|
-|--------------|-----------------|--------------|-------------------|
                                                                              


-|--------------|-----------------|--------------|-------------------|
-|--------------|-----------------|--------------|-------------------|
-|-2----2-2-2---|---6-6-6-4-------|--2---2-2-2---|--4--4--4--4--4--4/|
-|--------------|-----------------|--------------|-------------------|
                                                                              


-|--------------|-----------------|--------------|-------------------|
-|--------------|--------20-------|--------------|-------------------|
-|/14-----------|-18---------18---|-16-----------|--18--14--11--9----|
-|--------------|-----------------|--------------|-------------------|
                                                                              



-|--------------|-----------------|--------------|-------------------|
-|--------------|-----------------|--------------|-------------------|
-|-6---8-9------|--4-----4--4--4--|-2-----2--2-2-|--4-----4--4--4----|
-|--------------|-----------------|--------------|-------------------|
                                                                              


-|--------------|-----------------|--------------|-------------------|
-|--------------|-----------------|--------------|-------------------|
-|-2---2-2-2----|--6--6--6--4-----|-2---2-2-2----|---6---4/-14-14-14-|
-|--------------|-----------------|--------------|-------------------|
                                                                              


-|--------------|-----------------|--------------|-------------------|
-|--------------|-----------------|--------------|-------------------|
-|-2---2-2-2----|--6--6--6--4-----|-2---2-2-2----|---6----4----------|
-|--------------|-----------------|--------------|-------------------|
                                                                              


-|--------------|-----------------|--------------|---------------------|
-|--------------|-----------------|--------------|---------------------|
-|-2---2--2--2--|--6--6--6--4-----|-2---2--2--2--|-4-4-4-4-/16-16-16-16|
-|--------------|-----------------|--------------|---------------------|
                                                                              


-|--------------|-----------------|--------------|---------------|---
-|--------------|-----------------|--------------|---------------|---
-|-14\---2-x-2--|-4-4-x-6-x-2-2---|-------2-x-2--|-4-4-4-4---2-2-|---
-|----2---------|-----------------|-2-2-x--------|---------------|-2-
            
Submit corrections

comments powered by Disqus
↑ Back to top | Knapp Jennifer Bass for Romans. Lyrics for acoustic guitar and electric guitar. Tablatures and chords are parodies/interpretations of the original songs. You may use it for private study, scholarship, research or language learning purposes only