» » »

Knack, My Sharona Bass tabs (ver.2)

Artists:  A B C D E F G H I J K L M N O P Q R S T U V W X Y Z # 

My Sharona Bass tabs (ver.2)

Knack Tabs
 Rating:
4/5 (4 votes)
My Sharona lessons Tabs too difficult? Try these video lessons and learn fast
1
                #------------------------------------------------------------------------------##

The Knack - MY SHARONA
======================

{Intro/Verse}
        (Repeat 4 times}

   q      e e e e q q   q q e e e e   e e e e q q   Q e e q e   
+------+--------------+-------------+-------------+------------+
|------|*-----5-5---5-|---5---5-5---|-----5-5---5-|-----------*|
|-10\X-|*-------------|-------------|-------------|-3-1-3-1---*|
+------+--3-3-----3---+-3---3-----1/+-3-3-----3---+---------1/-+


{chorus}

  e e e e e e e e   e e e e e e e e   e e e e e e e e   e e e e e e e e  
+-----------------+-----------------+-----------------+-----------------+
|---5-5-5---5-5-5-|---5-5-5---5-5-5-|---8-8-8---8-8-8-|---8-8-8---8-8-8-|
|-----------------|-----------------|-----------------|-----------------|
+-3-------3-------+-3-------3-------+-6-------6-------+-6-------6-------+

  Q Q q+  e Q q q    
+-------+---------+
|-------|---------|
|-----6-|-6-6-6-8-|
+-8-8---+---------+


{Intro/Verse}  (Repeat 3 times)

{chorus}

{1st Variation}		     (Repeat 4 times)

  e e e e q q   q q e e e e    e e e e q q   q q e e e e   Q Q q+  e Q e e q
+-------------+-------------+--------------+-------------+-------+------------+
|-----5-5---5-|---5---5-5---|*-----5-5---5-|---5---5-5-5-|-------|-----------*|
|-------------|-------------|*-------------|-------------|-3-3-6-|-6-6-8-6-8-*|
+-3-3-----3---+-3---3-----1/+--3-3-----3---+-3---3-------+-------+------------+

  e e e e e e e e   e e e e q  q     
+-----------------+----------------+
|-----------------|----------------|
|-5-5-5-5-5-5-5-5-|-5-5-5-5-5-10\X-|
+-----------------+----------------+


{Intro/Verse}  (Repeat 4 times)

{Chorus}

{2nd Variation}					 (Repeat 4 times)

 e e e e q q    q q e e e e   Q Q q+  e Q e e q    e e e e q q   q q e e e e+  
+-------------+-------------+-------+-----------+--------------+--------------+
|-----5-5---5-|---5---5-5-5-|-------|-----------|*-----5-5---5-|---5-----5---*|
|-------------|-------------|-3-3-6-|-6-6-8-6-8-|*-------------|-------------*|
+-3-3-----3---+-3---3-------+-------+-----------+--3-3-----3---+-3---3-3---3--+

  e e e e q q   q q e e q   w+  H q   w+  q+e  e  e  e e e   
+-------------+-----------+---+-----+---+------------------+
|-----5-5---5-|---5-----5-|---|-----|---|------------------|
|-------------|-----------|-3-|-3---|---|------------------|
+-3-3-----3---+-3---3-3---+---+---3/+-8-+-8-8-10-10-10-8-3-+


{Solo}
(Repeat 8 times)       (Repeat 15 times)

   Q e Q e   Q e q q     Q e Q e   Q e e e e e    Q e Q e   Q e q q   Q e Q e  
+----------+----------+----------+--------------+---------+---------+---------+
|*---------|---------*|*---------|-------------*|---------|-----3-3-|---------|
|*-3-------|---------*|*-3-------|---------0-1-*|-3-------|---------|-3-------|
+----3-3-1-+-1-1-1-3--+----3-3-1-+-1-1-3-3------+---3-3-1-+-1-1-----+---3-3-1-+

  Q e q q   Q e Q e   Q e h   Q e Q e   Q e q q   e e e e e e e e  
+---------+---------+-------+---------+---------+-----------------+
|---------|---------|-------|---------|---------|-----------------|
|---------|-3-------|-------|-3-------|---------|-5-5-5-5-5-5-5-5-|
+-1-1-1-3-+---3-3-1-+-1-1-1-+---3-3-1-+-1-1-1-3-+-----------------+

  e e e e q q     q  q    
+-------------+----------+
|-----------R-|2:-R------|
|-5-5-5-5-5---|4:---10\X-|
+-------------+----------+


{End}
 (Repeat 5 times)

    e e e e q q   q q e e e e   
+----------------+--------------+
|*4:-----5-5---5-|---5---5-5---*|
|*4:-------------|-------------*|
+----3-3-----3---+-3---3-----1/-+

(Repeat 3 times Intro/Verse)


==========================================================================

     __         Created using the Bass Tab Creator
   +|oo|+       by Mario D'Alessio (motcid!marble!dalessio)
   +|oo|+
     ||         NOTES:
     ||
     ||         Capital durations are dotted notes
     ||           (equal to 1.5 times the duration value)
     ||
     ||         +----+                   +----+
  _  ||  _      |*--*+  = MEASURE        |4:--|  = TIME
  \\_||_//      |*--*+    REPEATS        |4:--|    SIGNATURES
   | [] |       +----+                   +----+
   | || |
  /  []  \      + = TIE         ^  = TRIPLET           > = BEND
  \______/      H = HAMMER ON   \  = SLIDE TO FRET     R = Rest
                P = PULL OFF    \X = SLIDE TO NOWHERE  ~ = Trill
            
Submit corrections

comments powered by Disqus
↑ Back to top | Knack Bass for My Sharona. Lyrics for acoustic guitar and electric guitar. 1 Tablatures and chords are parodies/interpretations of the original songs. You may use it for private study, scholarship, research or language learning purposes only