» » »

Knaan, Waving Flag Tabs (ver.1)

Artists:  A B C D E F G H I J K L M N O P Q R S T U V W X Y Z # 

Waving Flag Tabs (ver.1)

Knaan Tabs
 Rating:
4/5 (4 votes)
Waving Flag lessons Tabs too difficult? Try these video lessons and learn fast
1
                These Tabs By: Xrex

I'm xrex and this is my first tab so dont be harsh on me.........
I guessed the tabs myself..... actually my friend gave me the intro
 and dared me to guess the other parts of the song and tell
 him so i guessed and improvised and he was shocked to find that
 I guessed something he could'nt guess cuz he has been playing the
guitar since 3 years and I only 1 year! :)


INTRO(my friend gave me this part):
  e|0---0-------|-3-1-0-0---0-----|
  B|-1-3-1------|1-----1-1-2-2----|
  G|------------|-----------------|   X2
  D|------------|-----------------|
  A|------------|-----------------|
  E|------------|-----------------|

THE SONG(part which I guessed)
  e|0-0---------|-----------------|0-0-3-3---------|
  B|-3-1--------|-1---------------|-------3-1-3-1--|
  G|------------|2-2-0------------|----------------|  X2
  D|------------|-----------------|----------------|
  A|------------|-----------------|----------------|
  E|------------|-----------------|----------------|

  e|---0-3-5----|5-5-5-5-5-3-0----|
  B|1-1---------|-------------3-3-|
  G|------------|-----------------|    X2
  D|------------|-----------------|
  A|------------|-----------------|
  E|------------|-----------------|

  e|0-----------|
  B|-3-1--------|
  G|------------| (we all say)part.
  D|------------|
  A|------------|
  E|------------|

  e|-----0------|1-1-1-0----|0-0-0-----|3-3-3-1-1--|
  B|1-1-3-1-----|-------3---|-----3-1--|---0-------|
  G|------------|-----------|----------|-----------|
  D|------------|-----------|----------|-----------| 
  A|------------|-----------|----------|-----------|
  E|------------|-----------|----------|-----------|

  e|------------|
  B|1-3-1-0-1---|
  G|------------|   X3            
  D|------------|
  A|------------|
  E|------------|


HOPE YOU GUYS/GALS LIKED IT!

Ps: If anyone finds a problem or mistake in these tabs, just PM or IM me.

:)
            
Submit corrections

comments powered by Disqus
↑ Back to top | Knaan Tabs for Waving Flag. Lyrics for acoustic guitar and electric guitar. 1 Tablatures and chords are parodies/interpretations of the original songs. You may use it for private study, scholarship, research or language learning purposes only