» » »

Wavin Flag Bass tabs (ver.1)

Artists:  A B C D E F G H I J K L M N O P Q R S T U V W X Y Z # 

Wavin Flag Bass tabs (ver.1)

Knaan
Rating:
0/5 (0 votes)

Hard to play? Try these video lessons and learn fast.
                Heey guys, this is my first tab, so enjoy, and forgive my mistakes i may have. I believe 
is for the RHYTHM part of the song, I WILL BE POSTING A VIDEO SOMETIME AFTER JUNE 15TH 

The Key Signature is the C Major scale
                          E F  G  A   B C
G---------------A-B-C--D--9-10-12-14-16-17-|
D-------E-F-G---7-9-10-12------------------|
A-C-D---7-8-10-----------------------------|
E-8-10-------------------------------------|

If you need to make any changes, use the C Major scale as your guideline to make any 
you may want to do.

Intro:
G----------------5-|
D--------------5---|
A-3-----0----3-----|
E---1-----3--------|


Chorus:
G------------------5-3----|
D-----2-5-2-3-3--3--------|
A-3-3---------------------|
E-------------------------|


G-2-2--2-3----------------|
D---------3-5-5--5-3------|
A--------------------5----|
E-------------------------|


Chorus (part 2)

G----------------------------|
D-----2----------2-----------|
A-3-3--3---3--0-0-0---2------|
E-------1-1-1------3-3-3-----|

The Verse is the same as the Chorus (part 2)
So only learn chorus (part 2) and the Intro


Verse:
G----------------------------|
D-----2----------2-----------|
A-3-3--3---3--0-0-0---2------|
E-------1-1-1------3-3-3-----|


(Hotmail is best choice, as check it more often)
            
Hard to play? Try these video lessons and learn fast. | Correct




comments powered by Disqus
↑ Back to top | Tablatures and chords are parodies/interpretations of the original songs. You may use it for private study, scholarship, research or language learning purposes only