» » »

Take A Minute Tabs (ver.1)

Artists:  A B C D E F G H I J K L M N O P Q R S T U V W X Y Z # 

Take A Minute Tabs (ver.1)

Knaan
Rating:
0/5 (0 votes)

Hard to play? Try these video lessons and learn fast.
                This song is great

Verse that plays through:

E|--------------\
B|--------------\
G|-3-5-6------3-\
D|-3-5-6--4-6-3-\
A|-1-3-4--4-6-1-\
E|--------2-4---\
Chorus 

E|-------------------------\
B|-------------------------\
G|--3-5-6------------3-----\
D|--3-5-6--44-3--4-6-3-3p1-\
A|--1-3-4--------4-6-1----4\
E|---------------2-4-------\

pretty easy right?
            
Hard to play? Try these video lessons and learn fast. | Correct




comments powered by Disqus
↑ Back to top | Tablatures and chords are parodies/interpretations of the original songs. You may use it for private study, scholarship, research or language learning purposes only