» » »

Knaan, In The Beginning Tabs (ver.2)

Artists:  A B C D E F G H I J K L M N O P Q R S T U V W X Y Z # 

In The Beginning Tabs (ver.2)

Knaan Tabs
Rating:
0/5 (0 votes)
In The Beginning lessons Tabs too difficult? Try these video lessons and learn fast
                (Live)
-------------------------------------------------------------------------------
                             In The Beginning (Live)  - K'naan
-------------------------------------------------------------------------------
Time Signature:  4/4

Tuning:EADGBe


Intro:
e|--------1--------------0--------------3--------------0----------------------|
B|----------1---1----------1---1----------3---3----------1---1----------------|
G|--(2)--2-----2----(0)--0----0---0--(0)------0-----(2)--2----2---------------|
D|----------------------------------------------------------------------------|
A|----------------------------------------------------------------------------|
E|----------------------------------------------------------------------------|


Rest of the song!:  Just mess around with the Chord progression below! :)

Chords:
    (F)             (C)           (G)           (Ab)
e|---1----1----------0----0--------3----3--------0----0-----------------------|
B|---1------1---1----1------1---1--3------3---3--1------1---1-----------------|
G|---2--2-----2------0--0-----0----0--0-----0----2--2-----2-------------------|
D|---3---------------2-------------0-------------2----------------------------|
A|---3---------------3-------------2-------------0----------------------------|
E|---1---------------0-------------3-------------0----------------------------|

************************************

| /   slide up
| \   slide down
| h   hammer-on
| p   pull-off
| ~   vibrato
| +   harmonic
| x   Mute note
| b   Bend
| pb  Pre-bend
| br  Bend release
| pbr Pre-bend release
| brb Bend release bend

************************************

Any correction are welcome!
            

comments powered by Disqus
↑ Back to top | Knaan Tabs for In The Beginning. Lyrics for acoustic guitar and electric guitar. Tablatures and chords are parodies/interpretations of the original songs. You may use it for private study, scholarship, research or language learning purposes only