» » »

Fire In Freetown Bass tabs (ver.1)

Artists:  A B C D E F G H I J K L M N O P Q R S T U V W X Y Z # 

Fire In Freetown Bass tabs (ver.1)

Knaan
Rating:
0/5 (0 votes)

Hard to play? Try these video lessons and learn fast.
                K’naan – Fire in Freetown
Bass Tabs.

G|-----------------------------|
D|-----------------------------|
A| 0-0--2-2--2-2---------------|
E|------------------0-0—0-0----|

G|-----------------------------|
D|-----------------------------|
A| 0-0--2-2--2-2---------------|
E|------------------0-0—0-0----|

just listen to the song and you know how to play it
//theenuff
            
Hard to play? Try these video lessons and learn fast. | Correct




comments powered by Disqus
↑ Back to top | Tablatures and chords are parodies/interpretations of the original songs. You may use it for private study, scholarship, research or language learning purposes only