» » »

Klamydia, Pohjanmaalla Tabs (ver.1)

Artists:  A B C D E F G H I J K L M N O P Q R S T U V W X Y Z # 

Pohjanmaalla Tabs (ver.1)

Klamydia Tabs
Rating:
4/5 (1 vote)
Pohjanmaalla lessons Tabs too difficult? Try these video lessons and learn fast
                Standard tuning

Listen to the song for more accurate timing

INTRO
backg.:    G5               C5       G5  C5      G5       D5

e-------------------------------------------------------------------|
B-------------------------------------------------------------------|
G-----4455-7--7--9--7-------9--7--9--7---5-------5-------------5----|
D---55----------------9-7-5----------------9-7-5---9-7-5--7--9------|
A-------------------------------------------------------------------|
E-------------------------------------------------------------------|

         G5             C5       G5   C5       D5      G5
e-------------------------------------------------------------------|
B-------------------------------------------------------------------|
G------5-7---5-7--12-11-9--7--9--7----5--4-----7--5--4--------------|
D--7-9-----9-------------------------------5-----------5~-----------|
A-------------------------------------------------------------------|
E-------------------------------------------------------------------|
(Play intro once)

verse
e--------------------------------------------------------------|
B--------------------------------------------------------------|
G-------------------7-----7-------------5----------------------|
D------5-----5------7-----7--5----------5--5-------------------|
A------5-----5--5-5-5-5-5-5--5----------3--5-------------------|
E--3-3-3-3-3-3---------------3--3-3-3-3----3--3-3-3-3----------|
   X X   X X    X X   X X       X X X X       X X X X


riff 2
e-------------------------------------|
B-------------------------------------|
G--5--5-5--4/5--5-5-------------------|
D--5--5-5--4/5--5-5--5--5-5--4/5--5-5-|
A--3--3-3--2/3--3-3--5--5-5--4/5--5-5-|
E--------------------3--3-3--2/3--3-3-|

    Play verse twice, riff 2 once,
    again verse twice, riff 2 once,
    then verse ONCE and pre chorus


pre-chorus
       C5       G5   D5
"Mutta heimoani mina rakastan."


CHORUS

       C5            D5            B5         E5(022xxx)
"Alkaa P:lla, loppuu A:lla, hienoo olla Pohjanmaalla!
 C5          D5       E5(x799xx)
 Pellot tasaiset, mut kotiin johdattaa.
       C5            D5            B5         E5(022xxx)
 Alkaa P:lla, loppuu A:lla, hienoo olla Pohjanmaalla!
      C5         D5       E5(x799xx)  D5
 Vain maa pysyy, muu pois katoaa! Katoaa.."

Then back to verse&riff2 thingy...


After playing Chorus for the second time, play Intro once and then this:

   D5
   full       full       full       full

e------10-10------10-10------10-10------10--------------------------|
B------10-10------10-10------10-10------10--13-12-10----------------|
G--12b--------12b--------12b--------12b--------------12-------------|
D-------------------------------------------------------------------|
A-------------------------------------------------------------------|
E-------------------------------------------------------------------|


CHORUS


OUTRO
      C5         D5           G5
"Vain maa pysyy, muu pois katoaa! "


I know it's a bit messy.
            
Submit corrections

comments powered by Disqus
↑ Back to top | Klamydia Tabs for Pohjanmaalla. Lyrics for acoustic guitar and electric guitar. Tablatures and chords are parodies/interpretations of the original songs. You may use it for private study, scholarship, research or language learning purposes only