» » »

Pienen Pojan Elamaa Bass tabs (ver.1)

Artists:  A B C D E F G H I J K L M N O P Q R S T U V W X Y Z # 

Pienen Pojan Elamaa Bass tabs (ver.1)

Klamydia
Rating:
0/5 (0 votes)

Hard to play? Try these video lessons and learn fast.
                                           Bass Tab ^.^

Intro:

               4x                                                          2x
|---------------||------------------------------------------------------------|
|4-6-6-6-6-6-6-6||6---6-6-6-6-6-6---------------4---4-4-4-4-4-4---------------|
|---------------||---------------7---7-7-7-7-7-7---------------6---6-6-6-6-6-6|
|---------------||------------------------------------------------------------|

|-------------------------------|
|6-6-6-6-6-6-6-6-6-6-6-6-6-6-6-6|
|-------------------------------|
|-------------------------------|


Verses:

 1st Verse play this 4 times, 2nd and 3rd Verses play this 2 times.
|------------------------------------------------------------|
|6-6-6-6-6-6-6-6---------------9-9-9-9-9-9-9-9---------------|
|---------------7-7-7-7-7-7-7-7---------------9-9-9-9-9-9-9-9|
|------------------------------------------------------------|

|------------------------------------------------------------|
|-------------------------------6---6-6-6-6-6---6---6-6-6-6-6|
|7-7-7-7-7-7-7-7-9-9-9-9-9-9-9-9-----------------------------|
|------------------------------------------------------------|


Chorus:


|------------------------------------------------------------|
|9---9-9-9-9-9-9---------------6---6-6-6-6-6-6---------------|
|---------------9---9-9-9-9-9-9---------------6---6-6-6-6-6-6|
|------------------------------------------------------------|

|-------------------------------------------------------------|
|-------------------------------9---9-9-9-9-9-9---------------|
|7---7-7-7-7-7-7-9---9-9-9-9-9-9---------------9---9-9-9-9-9-9|
|-------------------------------------------------------------|

|------------------------------------------------------------|
|9---9-9-9-9-9-9---------------6---6-6-6-6-6-6---------------|
|---------------9---9-9-9-9-9-9---------------6---6-6-6-6-6-6|
|------------------------------------------------------------|

|-------------------------------------------------------------|
|-------------------------------6---6-6-6-6-6-6---------------|
|7---7-7-7-7-7-7-9---9-9-9-9-9-9---------------6---6-6-6-6-6-6|
|-------------------------------------------------------------|


Solo Part:
(after 2nd chorus)

 First this 2 times.
|------------------------------------------------------------|
|6---6-6-6-6-6-6---------------4---4-4-4-4-4-4---------------|
|---------------7---7-7-7-7-7-7---------------6---6-6-6-6-6-6|
|------------------------------------------------------------|

 Then this 2 times.
|--------------------------------------------------------------|
|9---9-9-9-9-9-9-6---6-6-6-6-6-6-------------------------------|
|-------------------------------6---6-6-6-6-6-6-7---7-7-7-7-7-7|
|--------------------------------------------------------------|
             
 This once.
|-------------------------------------------------------------|
|---------------9-9-9-9-8-8-8-8-6---6-6-6-6-6-6---------------|
|9---9-9-9-9-9-9-------------------------------7---7-7-7-7-7-7|
|-------------------------------------------------------------|
             
 This once.
|-------------------------------------------------------------|
|4---4-4-4-4-4-4---------------6-6-6-6-6-6-6-6-6-6-6-6-6-6-6-6|
|---------------6---6-6-6-6-6-6-------------------------------|
|-------------------------------------------------------------|
            
Hard to play? Try these video lessons and learn fast. | Correct




comments powered by Disqus
↑ Back to top | Tablatures and chords are parodies/interpretations of the original songs. You may use it for private study, scholarship, research or language learning purposes only