» » »

Kj-52, Run For Cover Tabs (ver.2)

Artists:  A B C D E F G H I J K L M N O P Q R S T U V W X Y Z # 

Run For Cover Tabs (ver.2)

Kj-52 Tabs
Rating:
5/5 (1 vote)
Run For Cover lessons Tabs too difficult? Try these video lessons and learn fast
                Run for Cover----------KJ-52-|
Drop D tuning-----------2005-|

intro and chorus
e----------------------------------------------------|
b----------------------------------------------------|
g----------------------------------------------------|
d--0--0h3p0--0--0h3p0--x-x-0-0h3p0--3333555522223333-|
a--0--0h3p0--0--0h3p0--x-x-0-0h3p0--3333555522223333-|
d--0--0h3p0--0--0h3p0--x-x-0-0h3p0--3333555522223333-|

verses 1st part          verses 2nd part
e--------------        e------------------------------------|
b--------------        b------------------------------------|
g--------------        g------------------------------------|
d--00--002233--        d--2222222-s3333333-222-xxxx-2333333-|
a--00--002233--        a--2222222-s3333333-222-xxxx-2333333-|
d--00--002233--        d--2222222-s3333333-222-xxxx-2333333-|
   palm mute

e------------------------------|
b------------------------------|
g------5----5---------5----5---|
d----3----3-----3---3----3---3-|
a-------3--------------3-------|
d--3--------------3------------|
            

comments powered by Disqus
↑ Back to top | Kj-52 Tabs for Run For Cover. Lyrics for acoustic guitar and electric guitar. Tablatures and chords are parodies/interpretations of the original songs. You may use it for private study, scholarship, research or language learning purposes only