» » »

Are You Real Remix Tabs (ver.1)

Artists:  A B C D E F G H I J K L M N O P Q R S T U V W X Y Z # 

Are You Real Remix Tabs (ver.1)

Kj-52
Rating:
5/5 (2 votes)

Tabs too difficult? Try these video lessons and learn fast.
                
E|-----------------------------|
B|-----------------------------|
G|-555555---5/7--77-55-55------|    x2
D|--------7--------------------|
A|-----------------------------|
D|-----------------------------|

E|------------------------------------------|
B|------------------------------------------|
G|-555555----5/7--77--55555-4---------------|
D|--------7--------------------3/5--55------|
A|------------------------------------------|
D|------------------------------------------|

E|-----------------------------|
B|-----------------------------|
G|-55555--5/7--77--55555-------|
D|-----------------------------|   x2
A|-----------------------------|
D|-----------------------------|


E|----------------------------|
B|---3------------------------|
G|-----2-------0-0-0----------|
D|----------------------------|  Play x3's
A|----------------------------|
D|-0------0-3----5-5----------|


E|---------------------------------------|
B|---------------------------------------|
G|-----3-----------3-5-------------------|
D|-0-3-3-0-5-3-0-3-3-5-0-5-3-------------|
A|-0-3-1-0-5-3-0-3-1-3-0-5-3-------------|
D|-0-3---0-5-3-0-3-----0-5-3-------------|


E|----------------------------------|
B|----------------------------------|
G|----------------------------------|
D|-00-33-55-00-33-55-00-30----------|
A|----------------------------------|
D|----------------------------------|
Play this about 8 rimes or so and then go back to the last part.
            
Tabs too difficult? Try these video lessons and learn fast.




comments powered by Disqus
↑ Back to top | Tablatures and chords are parodies/interpretations of the original songs. You may use it for private study, scholarship, research or language learning purposes only