» » »

Kittie, What I Always Wanted Tabs

Artists:  A B C D E F G H I J K L M N O P Q R S T U V W X Y Z # 

What I Always Wanted Tabs

(ver. 1)
Kittie Tabs
 Rating:
4/5 (4 votes)
    What I Always Wanted lessons Tabs too difficult? Try these video lessons and learn fast

WWW.AZCHORDS.COM | Kittie Tabs - What I Always Wanted Tabs (ver. 1)


                PROPS GO TO: i3lackmagik

@@@  @@@  @@@  @@@@@@@  @@@@@@@  @@@  @@@@@@@@  
@@@  @@@  @@@  @@@@@@@  @@@@@@@  @@@  @@@@@@@@  
@@!  !@@  @@!    @@!      @@!    @@!  @@!       
!@!  @!!  !@!    !@!      !@!    !@!  !@!       
@!@@!@!   !!@    @!!      @!!    !!@  @!!!:!    
!!@!!!    !!!    !!!      !!!    !!!  !!!!!:    
!!: :!!   !!:    !!:      !!:    !!:  !!:       
:!:  !:!  :!:    :!:      :!:    :!:  :!:       
 ::  :::   ::     ::       ::     ::   :: ::::  
 :   :::  :       :        :     :    : :: ::  

         ~What I Always Wanted Tab~

Tuning: (C,G,C,F,A,D)
Key: / or \ = slide

RIFF A

d|--------------|--------------|
a|--------------|--------------|
f|--------------|--------------|
c|-3--3-4-4-0-1-|-3--3-4-4-0-1-|
g|-3--3-4-4-0-1-|-3--3-4-4-0-1-|
c|-3--3-4-4-0-1-|-3--3-4-4-0-1-|

d|---------------|
a|---------------|
f|---------------|
c|-3-3-3-4-4-0-1-|
g|-3-3-3-4-4-0-1-|
c|-3-3-3-4-4-0-1-|

x1

Riff B

d|--------------|--------------|
a|--------------|--------------|
f|--------------|--------------|
c|-3--3-4-4-0-1-|-3--3-4-4-0-1-|
g|-3--3-4-4-0-1-|-3--3-4-4-0-1-|
c|-3--3-4-4-0-1-|-3--3-4-4-0-1-|

d|---------------|
a|---------------|
f|---------------|
c|-3-3-4-4-0-8/4-|
g|-3-3-4-4-0-8/4-|
c|-3-3-4-4-0-8/4-|

RIFF C

d|----------------------------------------------------------------|
a|----------------------------------------------------------------|
f|----------------------------------------------------------------|
c|-4-4-4-4-4-4-4-4-4-4-4-4-4-4-4-0-3-3-3-3-3-3-3-3-3-3-3-3-3-3-3-3|
g|-4-4-4-4-4-4-4-4-4-4-4-4-4-4-4-0-3-3-3-3-3-3-3-3-3-3-3-3-3-3-3-3|
c|-4-4-4-4-4-4-4-4-4-4-4-4-4-4-4-0-3-3-3-3-3-3-3-3-3-3-3-3-3-3-3-3|

RiFF D

d|-------------------|
a|-------------------|
f|-------------------|
c|-1-1-4-3--3-3--3--3|
g|-1-1-4-3--3-3--3--3|
c|-1-1-4-3--3-3--3--3|

x3

d|---------------------------|
a|---------------------------|
f|---------------------------|
c|-3-2-2-2-2-2-0-7-7-7-7-7-7-|
g|-3-2-2-2-2-2-0-7-7-7-7-7-7-|
c|-3-2-2-2-2-2-0-7-7-7-7-7-7-|

x1
  
Riff E

d|-------------|
a|-------------|
f|-------------|
c|-3/4-0-0-1-0-|
g|-3/4-0-0-1-0-|
c|-3/4-0-0-1-0-|

Slide

d|-----|
a|-----|
f|-----|
c|-8/4-|
g|-8/4-|
c|-8/4-|

ORDER

Riff A x3
Riff B x1
Riff C x2
Riff A x3
Riff B x1
Riff C x4
Riff D x4
Bass Solo (Silent)
Slide  x1
Riff C x4
Riff D x4
Riff E x16
Riff D x1
            
Submit corrections

↑ Back to top | Kittie Tabs for What I Always Wanted. Lyrics for acoustic guitar and electric guitar. Tablatures and chords are parodies/interpretations of the original songs. You may use it for private study, scholarship, research or language learning purposes only