» » »

Trippin Tabs (ver.3)

Artists:  A B C D E F G H I J K L M N O P Q R S T U V W X Y Z # 

Trippin Tabs (ver.3)

Kittie
Rating:
0/5 (0 votes)

Hard to play? Try these video lessons and learn fast.
                Tabbber: Tom Lasala
TUNING: C, F, C, F, A, D

Intro:
F-------------------
A-------------------
D-------------------
C-X-X-X-12-X-X-X-13-
G-X-X-X-12-X-X-X-13-
C-X-X-X-12-X-X-X-13-

Verse:
F---------------------
A---------------------
D---------------------
C-0-0-X-X-X-X-0-7-8-9-
G-0-0-X-X-X-X-0-7-8-9-
C-0-0-X-X-X-X-0-7-8-9-

Chorus:
F---------------------------------------
A---------------------------------------
D---------------------------------------
C-0-7-0-7-0-7-0-7-0-7-8-8-8-<7>-<7>-<7>-
G-0-7-0-7-0-7-0-7-0-7-8-8-8-<7>-<7>-<7>-
C-0-7-0-7-0-7-0-7-0-7-8-8-8-<7>-<7>-<7>-

Bridge:
F-----------------------------
A-----------------------------
D-----------------------------
C-0-7-8-0-7-8-0-7-8-0-7-8-0-5-
G-0-7-8-0-7-8-0-7-8-0-7-8-0-5-
C-0-7-8-0-7-8-0-7-8-0-7-8-0-5-
            
Hard to play? Try these video lessons and learn fast. | Correct




comments powered by Disqus
↑ Back to top | Tablatures and chords are parodies/interpretations of the original songs. You may use it for private study, scholarship, research or language learning purposes only