» » »

Trippin Tabs (ver.2)

Artists:  A B C D E F G H I J K L M N O P Q R S T U V W X Y Z # 

Trippin Tabs (ver.2)

Kittie
Rating:
0/5 (0 votes)

Hard to play? Try these video lessons and learn fast.
                Guitarists:Fallon Bowman/Morgan Lander
tuning:C G C F A D

F|-------7-------8|
C|-0-0-0-X-0-0-0-X|
G|-0-0-0-5-0-0-0-6|
C|-0-0-0---0-0-0--|

F|---------------3-4|
C|-12\\0-0XX0-1-2-X-X|
G|-12\\0-0XX0-1-2-1-2|
C|-12\\0-0XX0-1-2----|

F|------------------------|14-14-14|
C|-5-7-5-7-5-7-5-7-8-8-8-8|XXXXXXXX|
G|-5-7-5-7-5-7-5-7-8-8-8-8|12-12-12|
C|-5-7-5-7-5-7-5-7-8-8-8-8|--------|

C|----------------------------------|-----------------------------|
G|----------------------------------|-----------------------------|
C|-7-8-0-7-8-0-7-8-0-7-8-0-7-8-0-7-8|0-7-8-0-7-8-0-7-8-0-7-8-0-7-6|
PM................................................................
            
Hard to play? Try these video lessons and learn fast. | Correct




comments powered by Disqus
↑ Back to top | Tablatures and chords are parodies/interpretations of the original songs. You may use it for private study, scholarship, research or language learning purposes only