» » »

She Wants To Bass tabs (ver.1)

Artists:  A B C D E F G H I J K L M N O P Q R S T U V W X Y Z # 

She Wants To Bass tabs (ver.1)

Kittie
Rating:
0/5 (0 votes)

Hard to play? Try these video lessons and learn fast.
                G-------------------------------------------------------------
D--------------------------------------------------------------
A--------------------------------------------------------------- first part (INTRO)
E-----4--4--5--6--6-7-5-4---------------------------------------


G-----------------------------------------------------------------
D-----------------------------------------------------------------
A------------------------------------------------------------------second part
E--222-0--22-0-22-------------------------------------------------
After this, play already the first part

G------------------------------------------------------------------------
D-----------------------------------------------------------------------
A------3-33-3-33---------------------------------------------------------third part
E-----------------4-44-5-55-5-------------------------------------------
Play this third part only when the drums play


Hear on the rythem to play this correctly
it isn't difficult
            
Hard to play? Try these video lessons and learn fast. | Correct




comments powered by Disqus
↑ Back to top | Tablatures and chords are parodies/interpretations of the original songs. You may use it for private study, scholarship, research or language learning purposes only