>
 >
Safe 2

Safe 2 Guitar Tabs

Kittie - Safe 2 chords, tabs, tablatures, lyrics

Guitar lessons | Add/correct | Request | Top 50 tabs Artists:  A B C D E F G H I J K L M N O P Q R S T U V W X Y Z 0-9

Safe 2 Guitar Tabs – Kittie

CD, Sheet music, Poster

Do you like Safe 2? Share with your friends now
Bass TabsTabsTabs v2Tabs v3
Drop C tuning (low to high, c-g-c-f-a-d)

Intro-clean(with piano) this part is really hard to hear but it’s there
                                   __
C---------------------------------|  |
G---------------------------------|X4|
C-1-1-11--0-0-00--8-8-88--7-7-77--|__|

(*note* that 11 doesn’t mean at the 11th fret, it’s the 1st fret twice in a row)

Then the drums come in  
  
  Chorus1 (clean)                  __
C---------------------------------|  |This plays along w/ the 
G---------------------------------|X8|bass so just listen to
C-1-1-11--0-0-00--8-8-88--7-7-77--|__|that for the rhythm.
“Come to you senses... “

Bridge (distortion)     __
C----------------------|  |
G-6--6-6/5--5/13--15/12|X4|
C----------------------|__|
“ ...Bird, flies free ...”

 
  Chorus2(clean)                    __
C-----1---1-----------0---0--------|  |
G---1---1---1---1---0---0---0---0--|  |
C-1-----------1---0-----------0----|  |
                                   |X4|
C-----8---8-----------7---7--------|  |
G---8---8---8---8---7---7---7---7--|  |
C-8-----------8---7-----------7----|__|




  Outro1  (distortion)                    __
C-11111111—00000000--888888-10-8—77777777|  |
G-11111111—00000000--888888-10-8—77777777|x4|
C-11111111—00000000--888888-10-8—77777777|__|
 “Save me ...”
   
  Outro2 (distortion) __
C-1111—0000—8888—7777|  |
G-1111—0000—8888—7777|X4|
C-1111—0000—8888—7777|__|





Comments


Popular Kittie tabs & chords
Oracle 2 Bass Tabs
Raven 2 Bass Tabs
Choke 2 Tabs
Da *** You Can't *** Wit Tabs
Forgive And Forget Tabs
Jonny 1 Tabs
Never Again Tabs
Safe Tabs
Severed 1 Tabs
Funeral For Yesterday 2 Ukulele


Song lyrics



↑ Back to top | Tablatures and chords are parodies/interpretations of the original songs. You may use it for private study, scholarship, research or language learning purposes only
© 2014 AZChords.com Contact us | Privacy policy | DMCA | Add/correct tabs | Request tabs | Top 50 tabs