» » »

Kittie, Safe Tabs (ver.2)

Artists:  A B C D E F G H I J K L M N O P Q R S T U V W X Y Z # 

Safe Tabs (ver.2)

Kittie Tabs
 Rating:
4/5 (4 votes)
Safe lessons Tabs too difficult? Try these video lessons and learn fast
1
                Drop C (C, G, C, F, A, D).

p = pull of
t = tremolo picking

INTRO(piano)
D|-------6----7--6---6--|
A|-----6---6-------6----|
F|----------------------|
C|----------------------|
G|----------------------|
C|----------------------|

VERSE
D|--------------------------------------------------------|
A|--------------------------------------------------------|
F|--------------------------------------------------------|
C|------------------------------8---8----10-10--7----7----|
G|--5-5-6----6-----6-6-5----5-----------------------------|
C|--------------------------------------------------------|
   t...           t...                  t.....

 "golden bird...flys free" part.
D|---------------------------------------|
A|---------------------------------------|
F|---------------------------------------|
C|------------8--10p7--------------------|
G|--5-6--6-5-----------------------------|
C|---------------------------------------|

THEN         
                  	   X2                        X2
D|---------------------------|-------------------------|
A|---------------------------|-------------------------|
F|---------------------------|-------------------------|
C|---------------------------|---------8----9--8---8---|
G|--------1----2--1---1------|-------8---8-------8-----|
C|------3---3-------3--------|-------------------------|
  ......................................................
Repeat this until outro 

OUTRO
D|----------------------------------------------------|
A|----------------------------------------------------|
F|----------------------------------------------------|
C|-1-1-1-1-1-1-1-1-0-0-0-0-0-0-0-0-8-8-8-8-8-8-10-8-7-|
G|-1-1-1-1-1-1-1-1-0-0-0-0-0-0-0-0-8-8-8-8-8-8-10-8-7-|
C|-1-1-1-1-1-1-1-1-0-0-0-0-0-0-0-0-8-8-8-8-8-8-10-8-7-|
 "Saaaaaaave meeeeeeeeeee" part. 

THEN
D|---------------------------------|
A|---------------------------------|
F|---------------------------------|
C|-1-1-1-1-0-0-0-0-8-8-8-8-7-7-7-7-|
G|-1-1-1-1-0-0-0-0-8-8-8-8-7-7-7-7-|
C|-1-1-1-1-0-0-0-0-8-8-8-8-7-7-7-7-|
Play that until the song ends.
            
Submit corrections

comments powered by Disqus
↑ Back to top | Kittie Tabs for Safe. Lyrics for acoustic guitar and electric guitar. 1 Tablatures and chords are parodies/interpretations of the original songs. You may use it for private study, scholarship, research or language learning purposes only