» » »

Kittie, 11 - Paperdoll Tabs (ver.9)

Artists:  A B C D E F G H I J K L M N O P Q R S T U V W X Y Z # 

11 - Paperdoll Tabs (ver.9)

Kittie Tabs
Rating:
0/5 (0 votes)
11 - Paperdoll lessons Tabs too difficult? Try these video lessons and learn fast
                                                    PAPERDOLL
                              As recorded by Kittie
                           (From the 2000 Album SPIT)

Words and Music by Kittie
Arranged by Ethereal Sin

Gtr I (C A D G B E) - 'Fallon'
Gtr II (E A D G B E) - 'Morgan'

 Intro
  Moderate Rock Q=106
                 D5/A                        Eb5/Bb          F5/C  Eb5/Bb
 4/4
  Gtr I
  Wx2            E S S S S E S S S S E S S   E S S S S E S S E +E  E   4x
|------------||----------------------------|---------------------------||
|------------||o-3-x-x-x-x-3-x-x-x-x-3-x-x-|-4-x-x-x-x-4-x-x-6-(6)-4--o||
|------------||--2-x-x-x-x-2-x-x-x-x-2-x-x-|-3-x-x-x-x-3-x-x-5-(5)-3---||
|------------||----------------------------|---------------------------||
|------------||o---------------------------|--------------------------o||
|------------||----------------------------|---------------------------||


   1st Verse
    D5/A                        Eb5/Bb          F5/C  Eb5/D5/A
    E S S S S E S S S S E S S   E S S S S E S S E +E  E
||----------------------------|-------------------------|
||o-3-x-x-x-x-3-x-x-x-x-3-x-x-|-4-x-x-x-x-4-x-x-6-(6)-4-|
||--2-x-x-x-x-2-x-x-x-x-2-x-x-|-3-x-x-x-x-3-x-x-5-(5)-3-|
||----------------------------|-------------------------|
||o---------------------------|-------------------------|
||----------------------------|-------------------------|


                              Eb5/Bb          F5/C  Eb5/Bb
  E S S S S E S S S S E S S   E S S S S E S S E +E  E   6x
|---------------------------|---------------------------||
|-3-x-x-x-x-3-x-x-x-x-3-x-x-|-4-x-x-x-x-4-x-x-6-(6)-4--o||
|-2-x-x-x-x-2-x-x-x-x-2-x-x-|-3-x-x-x-x-3-x-x-5-(5)-3---||
|---------------------------|---------------------------||
|---------------------------|--------------------------o||
|---------------------------|---------------------------||


 Chorus
  $
  N.C.
 6/4
   E. E S E +Q    E. E S E E E    E. E S E +Q    E. E S E E E
|------------------------------|------------------------------|
|------------------------------|------------------------------|
|------------------------------|------------------------------|
|------------------------------|------------------------------|
|------------------------------|------------------------------|
|-/6--6-6-0-(0)--/6--6-6-0-7-7-|-/6--6-6-0-(0)--/6--6-6-0-7-7-|


                                                       To Coda
   E. E S E +Q    E. E S E E E    E. E S E +Q    E. E S E E E   Wx2
|------------------------------|------------------------------|--------||
|------------------------------|------------------------------|--------||
|------------------------------|------------------------------|--------||
|------------------------------|------------------------------|--------||
|------------------------------|------------------------------|--------||
|-/6--6-6-0-(0)--/6--6-6-0-7-7-|-/6--6-6-0-(0)--/6--6-6-0-7-7-|--------||


   2nd Verse
    D5/A                        Eb5/Bb          F5/C  Eb5/D5/A
   4/4
    E S S S S E S S S S E S S   E S S S S E S S E +E  E
||----------------------------|-------------------------|
||o-3-x-x-x-x-3-x-x-x-x-3-x-x-|-4-x-x-x-x-4-x-x-6-(6)-4-|
||--2-x-x-x-x-2-x-x-x-x-2-x-x-|-3-x-x-x-x-3-x-x-5-(5)-3-|
||----------------------------|-------------------------|
||o---------------------------|-------------------------|
||----------------------------|-------------------------|


                                        D.S. al Coda
                              Eb5/Bb          F5/C  Eb5/Bb
  E S S S S E S S S S E S S   E S S S S E S S E +E  E  4x
|---------------------------|--------------------------||
|-3-x-x-x-x-3-x-x-x-x-3-x-x-|-4-x-x-x-x-4-x-x-6-(6)-4-o||
|-2-x-x-x-x-2-x-x-x-x-2-x-x-|-3-x-x-x-x-3-x-x-5-(5)-3--||
|---------------------------|--------------------------||
|---------------------------|-------------------------o||
|---------------------------|--------------------------||


 Pre-Verse
  &
  C5             Db5C5               Ab5      Bb5
  Gtr II
   E  +E   E.  S  S  S  E  E  S  S   E. S S S E +S  S S S E S S
|----------------------------------|----------------------------|
|----------------------------------|----------------------------|
|----------------------------------|----------------------------|
|----------------------------------|----------------------------|
|-10-(10)-10--10-11-10-10-10-10-10-|-6--6-6-6-8-(8)-8-8-8-8-8-8-|
|--8--(8)--8---8--9--8--8--8--8--8-|-4--4-4-4-6-(6)-6-6-6-6-6-6-|
|
| Gtr I
|  W                                 W
|----------------------------------|----------------------------|
|----------------------------------|----------------------------|
|----------------------------------|----------------------------|
|----------------------------------|----------------------------|
|----------------------------------|----------------------------|
|----------------------------------|----------------------------|


  C5/G                Db5C5               Ab5      Bb5
    E     +E    E.  S  S  S  E  E  S  S   E. S S S E +S  S S S E S S
|---------------------------------------|-----------------------------|
|---------------------------------------|-----------------------------|
|---------------------------------------|-----------------------------|
|---------------------------------------|-----------------------------|
|--10----(10)--10--10-11-10-10-10-10-10-|-6--6-6-6-8-(8)-8-8-8-8-8-8--|
|---8-----(8)---8---8--9--8--8--8--8--8-|-4--4-4-4-6-(6)-6-6-6-6-6-6--|
|
|   S  S   H..                            W
|---------------------------------------|-----------------------------|
|-^13-13--13----------------------------|-----------------------------|
|-^12-12--12----------------------------|-----------------------------|
|-^10-10--10----------------------------|-----------------------------|
|-^10-10--10----------------------------|-----------------------------|
|---------------------------------------|-----------------------------|


  C5             Db5C5               Ab5      Bb5
   E  +E   E.  S  S  S  E  E  S  S   E. S S S E +S  S S S E S S
|----------------------------------|----------------------------|
|----------------------------------|----------------------------|
|----------------------------------|----------------------------|
|----------------------------------|----------------------------|
|-10-(10)-10--10-11-10-10-10-10-10-|-6--6-6-6-8-(8)-8-8-8-8-8-8-|
|--8--(8)--8---8--9--8--8--8--8--8-|-4--4-4-4-6-(6)-6-6-6-6-6-6-|


  C5             Db5C5               Ab5      Bb5
   E  +E   E.  S  S  S  E  E  S  S   E. S S S E +S  S S S E S S
|----------------------------------|------------------------------||
|----------------------------------|------------------------------||
|----------------------------------|------------------------------||
|----------------------------------|------------------------------||
|-10-(10)-10--10-11-10-10-10-10-10-|-6--6-6-6-8-(8)-8-8-8-8-8-8---||
|--8--(8)--8---8--9--8--8--8--8--8-|-4--4-4-4-6-(6)-6-6-6-6-6-6---||


   Verse 3
    C5             C#5C5               Ab5      Bb5
     E  +E   E.  S  S  S  E  E  S  S   E. S S S E +S  S S S E S S
||-----------------------------------|----------------------------|
||o----------------------------------|----------------------------|
||-----------------------------------|----------------------------|
||-----------------------------------|----------------------------|
||o-10-(10)-10--10-11-10-10-10-10-10-|-6--6-6-6-8-(8)-8-8-8-8-8-8-|
||---8--(8)--8---8--9--8--8--8--8--8-|-4--4-4-4-6-(6)-6-6-6-6-6-6-|


  C5             C#5C5               G#5      Bb5
   E  +E   E.  S  S  S  E  E  S  S   E. S S S E +S  S S S E S S
|----------------------------------|------------------------------||
|----------------------------------|-----------------------------o||
|----------------------------------|------------------------------||
|----------------------------------|------------------------------||
|-10-(10)-10--10-11-10-10-10-10-10-|-6--6-6-6-8-(8)-8-8-8-8-8-8--o||
|--8--(8)--8---8--9--8--8--8--8--8-|-4--4-4-4-6-(6)-6-6-6-6-6-6---||


 Outro
  C5          Ab5  Bb5    C5
   W          H    H       W           +W
|-----------|-----------|-----------|-------------|
|-----------|-----------|-----------|-------------|
|-----------|-----------|-----------|-------------|
|-----------|-----------|-----------|-------------|
|-10--------|-6----8----|-10--------|-(10)--------|
|--8--------|-4----6----|--8--------|--(8)--------|


   +W            +W            +W
|-------------|-------------|---------*|
|-------------|-------------|---------*|
|-------------|-------------|---------*|
|-------------|-------------|---------*|
|-(10)--------|-(10)--------|-(10)----*|
|--(8)--------|--(8)--------|--(8)----*|


Duration Legend
---------------
W - whole; H - half; Q - quarter; E - 8th; S - 16th; T - 32nd; X - 64th; a - acciaccatura
+ - note tied to previous; . - note dotted; .. - note double dotted
Uncapitalized letters represent notes that are staccato (1/2 duration)
Irregular groupings are notated above the duration line
Duration letters will always appear directly above the note/fret number it represents the
duration for.  Duration letters with no fret number below them represent rests.  Multi-
bar rests are notated in the form Wxn, where n is the number of bars to rest for.  Low
melody durations appear below the staff

Tablature Legend
----------------
 h   - hammer-on
 p   - pull-off
 b   - bend
 pb  - pre-bend
 r   - bend release (if no number after the r, then release immediately)
 /\  - slide into or out of (from/to "nowhere")
 s   - legato slide
 S   - shift slide
  - natural harmonic
[n]  - artificial harmonic
n(n) - tapped harmonic
 ~   - vibrato
 tr  - trill
 T   - tap
 TP  - trem. picking
 PM  - palm muting
\n/  - tremolo bar dip; n = amount to dip
 \n  - tremolo bar down
 n/  - tremolo bar up
/n\  - tremolo bar inverted dip
 =   - hold bend; also acts as connecting device for hammers/pulls
 <>  - volume swell (louder/softer)
 x   - on rhythm slash represents muted slash
 o   - on rhythm slash represents single note slash

Misc Legend
-----------
 |  - bar
||  - double bar
||o - repeat start
o|| - repeat end
*|  - double bar (ending)
 :  - bar (freetime)
 $  - Segno
 &  - Coda
Tempo markers -  = BPM(8/16=s8/s16), where s8 = swing 8ths, s16 = swing 16ths
            
Submit corrections

comments powered by Disqus
↑ Back to top | Kittie Tabs for 11 - Paperdoll. Lyrics for acoustic guitar and electric guitar. Tablatures and chords are parodies/interpretations of the original songs. You may use it for private study, scholarship, research or language learning purposes only