» » »

Now Or Never Tabs (ver.1)

Artists:  A B C D E F G H I J K L M N O P Q R S T U V W X Y Z # 

Now Or Never Tabs (ver.1)

Kittie
Rating:
0/5 (0 votes)

Tabs too difficult? Try these video lessons and learn fast.
                
Tuning:Drop C

Intro/x2
D|-------------------------------------------------------------------------|
A|-------------------------------------------------------------------------|
F|-------------------------------------------------------------------------|
c|-------------------------------------------------------------------------|
G|-------------------------------------------------------------------------|
C|-9-999-9-999-9-999--0--2--9-999-9-999-9-999-12-11-10---------------------|
repeat x2                1st repeat             2nd repeat
D|-----------------------|----------------------|-------------------------|
A|-----------------------|----------------------|-------------------------|
F|-----------------------|----------------------|-------------------------|
c|-----------------------|----------------------|-------------------------|
G|-----------------------|----------------------|-------------------------|
C|-5-555-5-555-5-555-0-3-|-5-555-5-555-5-555-8-7|-5-555-5-555-7-777-7-777-|

Chorus/ x2
D|-----------------------------------------------------------------------|
A|-----------------------------------------------------------------------|
F|-----------------------------------------------------------------------|
c|-----------------------------------------------------------------------|
G|-10-10-10-12-12-12-13-13-13-12-12-12-10/12-12--------------------------|
C|-10-10-10-12-12-12-13-13-13-12-12-12-10/12-12--------------------------|
PM    _____    _____    _____    _____ 

D|---------------------------------------------------------------------------------|
A|---------------------------------------------------------------------------------|
F|---------------------------------------------------------------------------------|
c|---------------------------------------------------------------------------------|
G|-8-8-8-8-8-8-8-8-8-8-8-8-7-7-7-7-8-8-8-8-8-8-8-8-8-8-8-8-10-10-10-10-10-10-10-10-|
C|-8-8-8-8-8-8-8-8-8-8-8-8-7-7-7-7-8-8-8-8-8-8-8-8-8-8-8-8-10-10-10-10-10-10-10-10-|
PM   _ _   _ _   _ _   _ _ _ _ _ _   _ _   _ _   _ _   _ _

after 2nd repeat
D|-------------------------------------------------------------------------|
A|-------------------------------------------------------------------------|
F|-------------------------------------------------------------------------|
c|-------------------------------------------------------------------------|
G|-9----8----7----5--------------------------------------------------------|
C|-9----8----7----5--------------------------------------------------------|

Intro
Chorus

Bridge x2
D|-------------------------------------------------------------------------|
A|-------------------------------------------------------------------------|
F|-------------------------------------------------------------------------|
c|-------------------------------------------------------------------------|
G|-9-----3--5-----9-----13--12---------------------------------------------|
C|-9-----3--5-----9-----13--12---------------------------------------------|

Solo
x2
D|-------------------------------------------------------------------------|
A|-------------------------------------------------------------------------|
F|-------------------------------------------------------------------------|
c|-------------------------------------------------------------------------|
G|-------------------------------------------------------------------------|
C|-9-999-9-999-9-999--0--2--9-999-9-999-9-999--0--2------------------------|
repeat x2                1st repeat             2nd repeat
D|------------------------|------------------------|----------------------|
A|------------------------|------------------------|----------------------|
F|------------------------|------------------------|----------------------|
c|------------------------|------------------------|----------------------|
G|------------------------|------------------------|----------------------|
C|-5-555-5-555-5-555--0--3|-5-555-5-555-5-555--0--3|-5-555-5-555----------|

Chorus

Instead of the part after 2nd repeat play this
Outro
D|-------------------------------------------------------------------------|
A|-------------------------------------------------------------------------|
F|-------------------------------------------------------------------------|
c|-------------------------------------------------------------------------|
G|-9-----8-----7-----5-----4---------------4-------------------------------|
C|-9-----8-----7-----5-----4---------------4-------------------------------|
                                           .


| .  staccato
| /  slide up
| \  slide down
| h  hammer-on
| p  pull-off
| ~  vibrato
| +  harmonic
| x  Mute note
            
Tabs too difficult? Try these video lessons and learn fast.




comments powered by Disqus
↑ Back to top | Tablatures and chords are parodies/interpretations of the original songs. You may use it for private study, scholarship, research or language learning purposes only