» » »

Kittie, No Name Tabs (ver.2)

Artists:  A B C D E F G H I J K L M N O P Q R S T U V W X Y Z # 

No Name Tabs (ver.2)

Kittie Tabs
 Rating:
4/5 (4 votes)
No Name lessons Tabs too difficult? Try these video lessons and learn fast
                Kittie
"No Name"
Oracle
100% CORRECT
Tuning: Drop C [low to high: C G C F A D]

pm=palm mute
 = tremelo pick

Intro
D------------------------------------------------
A------------------------------------------------
F------------------------------------------------
C---1--1------1--1------1--1------1--1-----------
G---1--1------1--1------1--1------1--1-----------
C---1--1------1--1------1--1------1--1-----------
pm..............................................

D------------------------------------------------
A------------------------------------------------
F------------------------------------------------
C---3--3------3--3------3--3------3--3-----------
G---1--1------1--1------1--1------1--1-----------
C------------------------------------------------

Lead-In

D---------------------------------------------------
A---------------------------------------------------
F---------------------------------------------------
C---1--1--1--1--1--1--1--1--1--1--1--1--1--1--1--1--
G---1--1--1--1--1--1--1--1--1--1--1--1--1--1--1--1--
C---1--1--1--1--1--1--1--1--1--1--1--1--1--1--1--1--
pm.................................................

Verse   (repeat entire measure 2x)
D-------------------------------------------------------------
A-------------------------------------------------------------
F-------------------------------------------------------------   (4x)
C---0-0-0-0-0-0-0-0-3--0--0--2--0--0--0--0--1-1-1-1-4-4-4-4---
G---0-0-0-0-0-0-0-0-3--0--0--2--0--0--0--0--1-1-1-1-4-4-4-4---
C---0-0-0-0-0-0-0-0-3--0--0--2--0--0--0--0--1-1-1-1-4-4-4-4---
pm....................      ......      ..............


D-------------------------------------
A-------------------------------------
F-------------------------------------
C-------------------------------------
G-------------------------------------
C---3-3-3-3-3-3-3-3-4-4-4-4-3-3-3-3---

Chorus
D---------------------
A---------------------
D--------------------- (8x)
C---------------------
G---1---1---4--4--4---
C---1---1---4--4--4---


Repeat Lead-In

Repeat Verse

Repeat Chorus

Interlude
D--------------------------------------
A--------------------------------------
F--------------------------------------
C--------------------------------------   (4x)
G-----------------0-1-2--------0-1-2---
C---0--0--0--0----------0--0-----------
pm...........          ....

D------------------------------------
A------------------------------------
F------------------------------------  (8x)
C------------------------------------
G---0--0--0--0--0-1-2--0--0--0-1-2---
C---0--0--0--0------------0--0-------
pm...........            ....

D----------------------------------------
A----------------------------------------
F----------------------------------------
C---1--1--1--1--1--1--1--1--1--1--1--1---
G---1--1--1--1--1--1--1--1--1--1--1--1---
C---1--1--1--1--1--1--1--1--1--1--1--1---
pm......................................

Outro
D------------------
A------------------
F------------------
C------------------   (8x)
G---0---0---1--3---
C---0---0---1--3---


D--------------------------
A--------------------------
F--------------------------
C---3--3----3---3-----3--3-
G---1--1----1---1-----1--1-
C--------------------------
            
Submit corrections

comments powered by Disqus
↑ Back to top | Kittie Tabs for No Name. Lyrics for acoustic guitar and electric guitar. Tablatures and chords are parodies/interpretations of the original songs. You may use it for private study, scholarship, research or language learning purposes only