>
 >
My Plague

My Plague Guitar Tabs

Kittie - My Plague chords, tabs, tablatures, lyrics

Guitar lessons | Add/correct | Request | Top 50 tabs Artists:  A B C D E F G H I J K L M N O P Q R S T U V W X Y Z 0-9

My Plague Guitar Tabs – Kittie

CD, Sheet music, Poster

Do you like My Plague? Share with your friends now
ChordsTabsUkulele

Tuning: Dropped C

Intro x4
e|-------------------------------------------------------------------------|
B|-------------------------------------------------------------------------|
G|-------------------------------------------0-5-4-------------------------|
D|-2-2-2-2-5-4-0-0-0-3-2-0-2-2-2-2-5-4-0-3-2-------------------------------|
A|-2-2-2-------0-0-0-------2-2-2-------------------------------------------|
E|-2-2-2-------0-0-0-------2-2-2-------------------------------------------|

Version 2
I tend to play it more like this version, it seems easier on my pinky, and I would 
Kittie would do it this way, they like to move their notes high up to make it look cooler or 
:P
which ever ('s works for you, recommend the first one though ;)
e|-------------------------------------------------------------------------|
B|-------------------------------------------------------------------------|
G|--------------------------------------------(0------)--------------------|
D|-2-2-2--------0-0-0-------2-2-2-------------(---10-9)--or-(--5-4)--------|
A|-2-2-2-7-10-9-0-0-0-8-7-5-2-2-2-7-10-9-5-7-8--------------(5----)--------|
E|-2-2-2--------0-0-0-------2-2-2------------------------------------------|


Pre-Verse x2                             1st time only
e|--------------------------------------|----------------------------------|
B|--------------------------------------|----------------------------------|
G|--------------------------------------|----------------------------------|
D|-2---------------------2--------------|----------------------------------|
A|-2--------------x-xxx--2--------------|-x-xxx----------------------------|
E|-2--------------x-xxx--2--------------|-x-xxx----------------------------|
 |
 | comes in after the second 2 chord. (x1)
e|------12---------------------------------------------15----------12------|
B|--15b-----15--12---------------------------------------------------------|
G|------------------15--14--12--------------------14b----------------------|
D|-------------------------------------------------------------------------|
A|-------------------------------------------------------------------------|
E|-------------------------------------------------------------------------|

Verse x4
e|---------------------------------------------------------------------------|
B|---------------------------------------------------------------------------|
G|---------------------------------------------------------------------------|
D|---------------------------------------------------------------------------|
A|-----------------------------------------------3---------------------------|
E|-2-222-4-2-2-2-222-5-2-2-2-222-4-2-2-2-222-5-2-----------------------------|

x2('s could be played instead          1st          2nd repeat
e|-------------------------------------|------------|----------------------|
B|-------------------------------------|------------|----------------------|
G|-------------------------------------|------------|----------------------|
D|-------------------------------------|------------|--2-5-4-0-4-3---------|
A|-------------------------------------|----------6-|-(7-10-9-5-9-8)-------|
E|-5-5-5-555-7-5-5-5-555-8-5-5-5-555-7-|5-555-8-5---|----------------------|

Chorus x4 (Could also be played like version 2 above^)
e|-------------------------------------------------------------------------|
B|-------------------------------------------------------------------------|
G|-------------------------------------------0-5-4-------------------------|
D|-2-2-2-2-5-4-0-0-0-3-2-0-2-2-2-2-5-4-0-3-2-------------------------------|
A|-2-2-2-------0-0-0-------2-2-2-------------------------------------------|
E|-2-2-2-------0-0-0-------2-2-2-------------------------------------------|

Pre-Verse
e|-------------------------------------------------------------------------|
B|-------------------------------------------------------------------------|
G|-------------------------------------------------------------------------|
D|-2---------------------2-------------------------------------------------|
A|-2--------------x-xxx--2-------------------------------------------------|
E|-2--------------x-xxx--2-------------------------------------------------|
 |
 |
e|----------------------------/12~---\-------------------------------------|
B|-------------------------------------------------------------------------|
G|-------------------------------------------------------------------------|
D|-------------------------------------------------------------------------|
A|-------------------------------------------------------------------------|
E|-------------------------------------------------------------------------|

Verse
Chorus


Bridge
Guitar 1 x2
e|-------------------------------------------------------------------------|
B|-------------------------------------------------------------------------|
G|-------------------------------------------------------------------------|
D|-2---------------------------------------7---------------5---------------|
A|-2---------------------------------x-x-x-5--------x-x-x--5----------x-x-x|
E|-2---------------------------------x-x-x----------x-x-x--5----------x-x-x|
 1st repeat
e|-------------------------------------------------------------------------|
B|-------------------------------------------------------------------------|
G|-------------------------------------------------------------------------|
D|-2---------------------------------7---------5---------7--------5--------|
A|-2---------------------------x-x-x-5---x-x-x-5---x-x-x-5--x-x-x-5---x-x-x|
E|-2---------------------------x-x-x-----x-x-x-5---x-x-x----x-x-x-5---x-x-x|
  2nd repeat
e|-------------------------------------------------------------------------|
B|-------------------------------------------------------------------------|
G|-------------------------------------------------------------------------|
D|-2-----------------------7--------5--------7------------2-------------2--|
A|-2-----------------x-x-x-5--x-x-x-5--x-x-x-5---5--5--5--2-------x-xxx-2--|
E|-2-----------------x-x-x----x-x-x-5--x-x-x-----5--5--5--2-------x-xxx-2--|

 Guitar 2 x5                                            first 4 repeats
e|-----------------------------------------------------|-------------------|
B|-----------------------------------------------------|---------15--------|
G|---12-14-15-14-12----12-14-15-14-12----12-14-15-14-12|---12-14----14-12--|
D|-14---------------14----------------14---------------|14-----------------|
A|-----------------------------------------------------|-------------------|
E|-----------------------------------------------------|-------------------|

 5th repeat --pick slide into verse
e|------------------------|
B|--15--------------------|
G|------14---12-----------|
D|----------------14------|
A|------------------------|
E|------------------------|

Verse
Chorus

Outro (could also be played like version 2 ^)
e|-------------------------------------------------------------------------|
B|-------------------------------------------------------------------------|
G|-------------------------------------------0-5-4-------------------------|
D|-2-2-2-2-5-4-0-0-0-3-2-0-2-2-2-2-5-4-0-3-2-------------------------------|
A|-2-2-2-------0-0-0-------2-2-2----------------------/7------\-or---------|
E|-2-2-2-------0-0-0-------2-2-2-----------------------------------/14----\|

Thanks for looking :)

************************************

| /   slide up
| \   slide down
| h   hammer-on
| p   pull-off
| ~   vibrato
| +   harmonic
| x   Mute note
| b   Bend
| pb  Pre-bend
| br  Bend release
| pbr Pre-bend release
| brb Bend release bend

************************************





Comments


Popular Kittie tabs & chords
Jonny Bass Tabs
Oracle Bass Tabs
Pink Lemonade Bass Tabs
What I Always Wanted 5 Bass Tabs
Charlotte Tabs
Immortal 3 Tabs
Immortal.. 2 Tabs
Johhny Tabs
Trippin' 1 Tabs
Sorrow I Know Ukulele


Song lyrics



↑ Back to top | Tablatures and chords are parodies/interpretations of the original songs. You may use it for private study, scholarship, research or language learning purposes only
© 2014 AZChords.com Contact us | Privacy policy | DMCA | Add/correct tabs | Request tabs | Top 50 tabs