>
 >
Kittie Charlotte

Kittie Charlotte Guitar Tabs

Kittie - Kittie Charlotte chords, tabs, tablatures, lyrics

Guitar lessons | Add/correct | Request | Top 50 tabs Artists:  A B C D E F G H I J K L M N O P Q R S T U V W X Y Z 0-9

Kittie Charlotte Guitar Tabs – Kittie

CD, Sheet music, Poster

Do you like Kittie Charlotte? Share with your friends now
Tabs
Tuning:      Guitar (6 string): Tune all your strings down one whole step. (D, G, C, F, A, D)
             Then tune your low D (formally your low E) to a C. (C, G, C, F, A, D)
             
             Bass (5 string):   Tune your bass up to match the top 5 strings of a guitar
             (E, A, D, G, B), then tune all your strings down one whole step (D, G, C, F, A).
             Then tune your low D (formally your low E) to a C. (C, G, C, F, A) 
		
Key:         h  = Hammer-on
             p  = Pull-Off
             /  = Slide up to next note
             \  = Slide down to next note
             ~  = Vibrato
             *  = Let ring
            < > = Harmonics

Note:       The other tabs I've noticed for this song were sort of on the right track, but didn't 
            sound quite right to me. So, I decided to tab it for myself. This is my first tab, so 
            if it's horribly wrong, uh....yeah. The bass part might be a little off, I'll have to 
            work on that if it is. This is a faily easy song to play, as long as you listen care-
            fully to get the timing right. :)
            
             

Intro: (Heavy Distortion)                   

               0:01   0:11                      
Guitars 1&2: D|-----------|
	     A|-----------|
	     F|-----------|
	     C|-4-4--4-4--|
	     G|-4-4--4-4--|
	     C|-4-4--4-4--|
	                   x8]
Bass:	     A|-----------|
	     F|-----------|
	     C|-----------|
	     G|-----------|
	     C|-4-4--4-4--|

Verse:              
               0:12                                                               0:36
Guitars 1&2: D|-----------------------------------------------------------------------|
	     A|-----------------------------------------------------------------------|
	     F|-----------------------------------------------------------------------|
	     C|-0---0-1/4--4-4-----<5>-1/4--4-4-----<5>-1/4--4-4-----<5>-1/4--4--4--4-|
	     G|-0---0-1/4--4-4---<5>---1/4--4-4---<5>---1/4--4-4---<5>---1/4--4--4--4-|
	     C|-0---0-1/4--4-4-<5>-----1/4--4-4-<5>-----1/4--4-4-<5>-----1/4--4--4--4-|
                                                                                       x4]
Bass:	     A|-----------------------------------------------------------------------|
	     F|-----------------------------------------------------------------------|
	     C|-----------------------------------------------------------------------|
	     G|-----------------------------------------------------------------------|
	     C|-0---0---4--4-4-----------4--4-4-----------4--4-4-----------4--4--4--4-|



Pre-Chorus: 
               0:37                                             0:42
Guitar 1:    D|---------------------------|-------------------------|x1]
             A|---------------------------|-------------------------|
             F|---------------------------|-------------------------|
             C|---------------------------|-------------------------|
             G|---------------------------|-------------------------|
             C|-3-2-1-2-1-2-1-2-1-2-2-3*--|-3-2-1-2-1-2-1-2-1-2-2-3-|

Chorus:
               0:44                                             1:07
Guitars 1&2  D|---------------------------|-------------------------|
             A|---------------------------|-------------------------|
             F|---------------------------|-------------------------|
             C|-3-2-1-2-1-2-1-2-1-2-2-3*--|-3-2-1-2-1-2-1-2-1-2-2-3-|
             G|-3-2-1-2-1-2-1-2-1-2-2-3*--|-3-2-1-2-1-2-1-2-1-2-2-3-|
             C|-3-2-1-2-1-2-1-2-1-2-2-3*--|-3-2-1-2-1-2-1-2-1-2-2-3-|
                                                                     x4]
Bass:	     A|---------------------------|-------------------------|
             F|---------------------------|-------------------------|
             C|---------------------------|-------------------------|
             G|---------------------------|-------------------------|
             C|-3-2-1-2-1-2-1-2-1-2-2-3*--|-3-2-1-2-1-2-1-2-1-2-2-3-|


Verse 2:                
               1:08                                                               1:32
Guitars 1&2: D|-----------------------------------------------------------------------|
	     A|-----------------------------------------------------------------------|
	     F|-----------------------------------------------------------------------|
	     C|-0---0-1/4--4-4-----<5>-1/4--4-4-----<5>-1/4--4-4-----<5>-1/4--4--4--4-|
	     G|-0---0-1/4--4-4---<5>---1/4--4-4---<5>---1/4--4-4---<5>---1/4--4--4--4-|
	     C|-0---0-1/4--4-4-<5>-----1/4--4-4-<5>-----1/4--4-4-<5>-----1/4--4--4--4-|
                                                                                       x4]
Bass:	     A|-----------------------------------------------------------------------|
	     F|-----------------------------------------------------------------------|
	     C|-----------------------------------------------------------------------|
	     G|-----------------------------------------------------------------------|
	     C|-0---0---4--4-4-----------4--4-4-----------4--4-4-----------4--4--4--4-|



Pre-Chorus 2: 
               1:33                                             1:38
Guitar 1:    D|---------------------------|-------------------------|x1]
             A|---------------------------|-------------------------|
             F|---------------------------|-------------------------|
             C|---------------------------|-------------------------|
             G|---------------------------|-------------------------|
             C|-3-2-1-2-1-2-1-2-1-2-2-3*--|-3-2-1-2-1-2-1-2-1-2-2-3-|

Chorus 2:                                                                Then...
               1:39                                             2:03      2:04
Guitars 1&2  D|---------------------------|-------------------------|    |------------|
             A|---------------------------|-------------------------|    |------------|
             F|---------------------------|-------------------------|    |------------|
             C|-3-2-1-2-1-2-1-2-1-2-2-3*--|-3-2-1-2-1-2-1-2-1-2-2-3-|    |-0*---------|
             G|-3-2-1-2-1-2-1-2-1-2-2-3*--|-3-2-1-2-1-2-1-2-1-2-2-3-|    |-0*---------|
             C|-3-2-1-2-1-2-1-2-1-2-2-3*--|-3-2-1-2-1-2-1-2-1-2-2-3-|    |-0*---------|
                                                                     x4]               x1]
Bass:	     A|---------------------------|-------------------------|    |------------|
             F|---------------------------|-------------------------|    |------------|
             C|---------------------------|-------------------------|    |------------|
             G|---------------------------|-------------------------|    |------------|
             C|-3-2-1-2-1-2-1-2-1-2-2-3*--|-3-2-1-2-1-2-1-2-1-2-2-3-|    |-0*---------|



Interlude: (Clean)
               
               2:10                                        2:16
Bass:	     A|------------------------------------------------|x1]
	     F|------------------------------------------------|
	     C|------------------------------------------------|
	     G|-5--5-5-5/9-9-9-9-9h10--------------------------|
	     C|------------------------5--5-5--5-5--5-5--5-5-5-|


Guitar 1: 
               2:17                                                                                       2:40
	     D|-------------------------------------------------|---------------------------------------------|
             A|-------------------------------------------------|---------------------------------------------|
             F|-7--7-7--7-7--7-7--7-7-7-------------------------|7--7-7/1111111/121212------------------------|
             C|-------------------------5--5-5--5-5--5-5--5-5-5-|----------------------5--5-5--5-5--5-5--5-5-5|
             G|-5--5-5--5-5--5-5--5-5-5-5--5-5--5-5--5-5--5-5-5-|5--5-5/9-9-9-9/101010-5--5-5--5-5--5-5--5-5-5|
             C|-------------------------5--5-5--5-5--5-5--5-5-5-|----------------------5--5-5--5-5--5-5--5-5-5|
                                                                                                               x2]
Bass:	     A|-------------------------------------------------|---------------------------------------------|
	     F|-------------------------------------------------|---------------------------------------------|
	     C|-------------------------------------------------|---------------------------------------------|
	     G|-5--5-5-5/9-9-9-9-9h10---------------------------|5--5-5-5/9-9-9-9-9h10------------------------|
	     C|-------------------------5--5-5--5-5--5-5--5-5-5-|----------------------5--5-5--5-5--5-5--5-5-5|




Guitar 1&2: 
               2:41                                                                                       2:53
	     D|-----------------------------------------------|----------------------------------------------|
             A|-----------------------------------------------|----------------------------------------------|
             F|-7--7-7/1111111/121212-------------------------|-7--77--77--77--7-7-7--7--7-7--7-7--7-7--7-7-7|
             C|-----------------------5--5-5--5-5--5-5--5-5-5-|----------------------------------------------|
             G|-5--5-5/9-9-9-9/101010-5--5-5--5-5--5-5--5-5-5-|-5--55--55--55--5-5-5--5--5-5--5-5--5-5--5-5-5|
             C|-----------------------5--5-5--5-5--5-5--5-5-5-|----------------------------------------------|
                                                                                                              x1]
Bass:	     A|-----------------------------------------------|----------------------------------------------|
	     F|-----------------------------------------------|----------------------------------------------|
	     C|-----------------------------------------------|----------------------------------------------|
	     G|-5--5-5-5/9-9-9-9-9h10-------------------------|-5--5-5-5/9-9-9-9-9h10------------------------|
	     C|-----------------------5--5-5--5-5--5-5--5-5-5-|-----------------------5--5-5--5-5--5-5--5-5-5|



Interlude (Part 2): (Distortion)
               
               2:54                 2:59
Guitars 1&2: D|-------------------------|
             A|-------------------------|
             F|-------------------------|
             C|-5--5-5--5-5--5-5--5-5-5-|
             G|-5--5-5--5-5--5-5--5-5-5-|
             C|-5--5-5--5-5--5-5--5-5-5-|
                                         x2]
Bass:	     A|-------------------------|
	     F|-------------------------|
	     C|-------------------------|
	     G|-------------------------|
	     C|-5--5-5--5-5--5-5--5-5-5-|
            
               3:00                                       3:26
Guitars 1&2  D|-----------------------------------------------|
             A|-----------------------------------------------|
             F|-7--7-7/1111111/121212-------------------------|
             C|-7--7-7/1111111/121212-5--5-5--5-5--5-5--5-5-5-|
             G|-5--5-5/9-9-9-9/101010-5--5-5--5-5--5-5--5-5-5-| 
             C|-----------------------5--5-5--5-5--5-5--5-5-5-|
                                                               x4]
Bass:	     A|-----------------------------------------------|
	     F|-----------------------------------------------|
	     C|-----------------------------------------------|
	     G|-5--5-5-5/9-9-9-9-9h10-------------------------|
	     C|-----------------------5--5-5--5-5--5-5--5-5-5-|

               2:27              2:30
Guitar 1:    D|----------------------|x1]
             A|----------------------|
             F|-------0/2~~-----2*---|
             C|-0*-------------------|
             G|-0*-------------------|
             C|-0*-------------------|




Outro: (Heavy Distortion)      
               
               3:31                            3:40
Guitars 1&2  D|------------------------------------|
             A|------------------------------------|
             F|-77-88-77-88------------------------|
             C|----------------0h1p0-1-1-0h1p0-1-1-|
             G|-55-66-55-66----0h1p0-1-1-0h1p0-1-1-|
             C|----------------0h1p0-1-1-0h1p0-1-1-|
                                                    x3]
Bass:	     A|------------------------------------|
	     F|------------------------------------|
	     C|------------------------------------|
	     G|-00-11-00-11------------------------|
	     C|----------------0-0-0-1-1-0-0-0-1-1-|


               2:41                                                  End
Guitars 1&2  D|---------------------------------------------------------|
             A|---------------------------------------------------------|
             F|-77-88-77-88---------------------------------------------|
             C|----------------0h1p0-1--1--1*---------------------------|
             G|-55-66-55-66----0h1p0-1--1--1*---------------------------|
             C|----------------0h1p0-1--1--1*---------------------------|
                                                                         x1]
Bass:	     A|---------------------------------------------------------|
	     F|---------------------------------------------------------|
	     C|---------------------------------------------------------|
	     G|-00-11-00-11---------------------------------------------|
	     C|----------------0-0-0-1--1--1*---------------------------|





Comments


Popular Kittie tabs & chords
Career Suicide Bass Tabs
Mouthful Of Poison Bass Tabs
Oracle 2 Bass Tabs
Charlotte 2 Tabs
Cut Throat Tabs
Everything That Could Have Been Tabs
Jonny Tabs
Jonny 1 Tabs
Mouthful Of Poison 1 Tabs
Brackish Ukulele


Song lyrics



↑ Back to top | Tablatures and chords are parodies/interpretations of the original songs. You may use it for private study, scholarship, research or language learning purposes only
© 2014 AZChords.com Contact us | Privacy policy | DMCA | Add/correct tabs | Request tabs | Top 50 tabs